Home » 69 Eyes – Rocker Bass | Ver. 1 | The site that provides the most complete music chords

69 Eyes – Rocker Bass | Ver. 1 | The site that provides the most complete music chords

by Andy Frank

Are you looking for a topic 69 Eyes – Rocker Bass | Ver. 1
right? If so, then you can watch it right here.

Table of Contents

69 Eyes – Rocker Bass | Ver. 1
| You can find many other song chords here

Australia.xemloibaihat.com | 69 Eyes – Rocker Bass | Ver. 1


[Intro] 0:14
Gb|-------------------------------|
Db|-------------------------------| x2
Ab|---5---------5----5------5-7-5-|
Eb|-7---5--7--7---7----5--5-------|
 
[Verse1]
Gb|----------------------------------------|
Db|----------------------------------------|
Ab|--------5-------------------5-------5---| x4
Eb|-7-7-7----5-7-7--5-7--7-7-7---5-7-7---7-|
 
Gb|-------------|
Db|-------------|
Ab|------5------|
Eb|-0--5---0--3-|
 
[Chorus] 0:54
Gb|--------------------------------------|
Db|--------------------------------------|
Ab|--------------------------------------| x2
Eb|-5--7-7--5--7--5h7-7--5--7-7--7--5--0-|
 
[Break] 1:08
Gb|-------------------------------|
Db|-------------------------------| x2
Ab|---5---------5----5------5-7-5-|
Eb|-7---5--7--7---7----5--5-------|
 
[Verse2]
Gb|--------------------------------------|
Db|--------------------------------------|
Ab|--------5-----------------5-------5---| x4
Eb|-7-7-7----5-7--5-7--7-7-7---5-7-7---7-|
 
Gb|-------------|
Db|-------------|
Ab|------5------|
Eb|-0--5---0--3-|
 
[Chorus] 1:47
Gb|--------------------------------------|   |---|
Db|--------------------------------------|   |---|
Ab|--------------------------------------| x4|---|
Eb|-5--7-7--5--7--5h7-7--5--7-7--7--5--0-|   |-3-|
 
[Solo] 2:16
Gb|-------------------------------------------|
Db|-------------------------------------3h5-3-| x2
Ab|--5-5-5-5-5-5-5-5-5-5-5-5-5-5-5-5--8-------|
Eb|-------------------------------------------|
 
[Mid eight]
Gb|--------------------------------------|
Db|--------------------------------------|
Ab|-5-------------5-5-5-5-5--8-----------|
Eb|---1--3-3-3-3-3-------------8-8-8-8-8-|
 
Gb|----------------------------------------------|
Db|-----------3--5-5-5-5-5-----------------------|
Ab|-5-5-5-5-5--------------5-5-5-5-5-5-5-5-5-5-5-|
Eb|----------------------------------------------|
 
Gb|----------------------------------------------|
Db|----------------------------------------------|
Ab|-5-5-5-5-5--------------5-5-5-5-5--8----------|
Eb|-----------1--3-3-3-3-3-------------8-8-8-8-8-|
 
Gb|---------------------------------------------||
Db|---------------------------------------------||
Ab|-5-5-5-5-5-----------------------------------||
Eb|-----------1--3-3-3-3-3--5-5-5-5-5-5-5-5-5-5-||
 
[Outro] 3:00
Gb|---|--------------------------------------|
Db|---|--------------------------------------|
Ab|---|--------------------------------------|
Eb|-0-|-5--7-7--5--7--5h7-7--5--7-7--7--5--0-|
 
Gb|---------------------------------------|
Db|---------------------------------------|
Ab|---------------------------------------| x3
Eb|--5--7-7--5--7--5h7-7--5--7-7--7--5--0-|
 
Gb|---|---------------|
Db|---|---------------|
Ab|-5-|------5--------|
Eb|---|-7--7---5--5-7-|
 
            

READ  Teardrops On My Guitar Chords By Taylor Swift | The site that provides the most complete music chords

You can find more useful information here: https://australia.xemloibaihat.com/chord

69 Eyes – Rocker Bass | Ver. 1
And searches related to this topic

#Eyes #Rocker #Bass #Ver

69 Eyes – Rocker Bass | Ver. 1

>>See more useful information provided by us here: More info here.

Review the information related to the topic 69 Eyes – Rocker Bass | Ver. 1
again

Australia.xemloibaihat.com | 69 Eyes – Rocker Bass | Ver. 1


[Intro] 0:14
Gb|-------------------------------|
Db|-------------------------------| x2
Ab|---5---------5----5------5-7-5-|
Eb|-7---5--7--7---7----5--5-------|
 
[Verse1]
Gb|----------------------------------------|
Db|----------------------------------------|
Ab|--------5-------------------5-------5---| x4
Eb|-7-7-7----5-7-7--5-7--7-7-7---5-7-7---7-|
 
Gb|-------------|
Db|-------------|
Ab|------5------|
Eb|-0--5---0--3-|
 
[Chorus] 0:54
Gb|--------------------------------------|
Db|--------------------------------------|
Ab|--------------------------------------| x2
Eb|-5--7-7--5--7--5h7-7--5--7-7--7--5--0-|
 
[Break] 1:08
Gb|-------------------------------|
Db|-------------------------------| x2
Ab|---5---------5----5------5-7-5-|
Eb|-7---5--7--7---7----5--5-------|
 
[Verse2]
Gb|--------------------------------------|
Db|--------------------------------------|
Ab|--------5-----------------5-------5---| x4
Eb|-7-7-7----5-7--5-7--7-7-7---5-7-7---7-|
 
Gb|-------------|
Db|-------------|
Ab|------5------|
Eb|-0--5---0--3-|
 
[Chorus] 1:47
Gb|--------------------------------------|   |---|
Db|--------------------------------------|   |---|
Ab|--------------------------------------| x4|---|
Eb|-5--7-7--5--7--5h7-7--5--7-7--7--5--0-|   |-3-|
 
[Solo] 2:16
Gb|-------------------------------------------|
Db|-------------------------------------3h5-3-| x2
Ab|--5-5-5-5-5-5-5-5-5-5-5-5-5-5-5-5--8-------|
Eb|-------------------------------------------|
 
[Mid eight]
Gb|--------------------------------------|
Db|--------------------------------------|
Ab|-5-------------5-5-5-5-5--8-----------|
Eb|---1--3-3-3-3-3-------------8-8-8-8-8-|
 
Gb|----------------------------------------------|
Db|-----------3--5-5-5-5-5-----------------------|
Ab|-5-5-5-5-5--------------5-5-5-5-5-5-5-5-5-5-5-|
Eb|----------------------------------------------|
 
Gb|----------------------------------------------|
Db|----------------------------------------------|
Ab|-5-5-5-5-5--------------5-5-5-5-5--8----------|
Eb|-----------1--3-3-3-3-3-------------8-8-8-8-8-|
 
Gb|---------------------------------------------||
Db|---------------------------------------------||
Ab|-5-5-5-5-5-----------------------------------||
Eb|-----------1--3-3-3-3-3--5-5-5-5-5-5-5-5-5-5-||
 
[Outro] 3:00
Gb|---|--------------------------------------|
Db|---|--------------------------------------|
Ab|---|--------------------------------------|
Eb|-0-|-5--7-7--5--7--5h7-7--5--7-7--7--5--0-|
 
Gb|---------------------------------------|
Db|---------------------------------------|
Ab|---------------------------------------| x3
Eb|--5--7-7--5--7--5h7-7--5--7-7--7--5--0-|
 
Gb|---|---------------|
Db|---|---------------|
Ab|-5-|------5--------|
Eb|---|-7--7---5--5-7-|
 
            

READ  Kari Jobe - Holy Spirit (Live) ft. Cody Carnes | my heart i surrender chords | Website providing Australia's #1 song chords

Thank you very much for your interest in our article. We hope this information is of great value to you.

You may also like

Leave a Comment