Home » Barenaked Ladies – Flip Tabs | Ver. 1 | The site that provides the most complete music chords

Barenaked Ladies – Flip Tabs | Ver. 1 | The site that provides the most complete music chords

Are you looking for a topic Barenaked Ladies – Flip Tabs | Ver. 1
right? If so, then you can watch it right here.

Barenaked Ladies – Flip Tabs | Ver. 1
| You can find many other song chords here

Australia.xemloibaihat.com | Barenaked Ladies – Flip Tabs | Ver. 1


[Intro]
 Flip!
(Drums and Vocals Only)
 
[Verse 1]
e|----------------------------------------------------------------------------------|
B|----------------------------------------------------------------------------------|
G|----------------------------------------------------------------------------------|
D|----------------------------------------------------------------------------------|
A|-------------------------------/-4-4-4-4--------------------------------/-4-4-4-4-|
E|-5-5-5-5---------------------------------2-2-2-2----------------------------------|
       I could be a little devil             or I could be a little saint
 
e|---------------------------------------------------------------------------|
B|---------------------------------------------------------------------------|
G|---------------------------------------------------------------------------|
D|---------------------------------------------------------------------------|
A|----------------------------------/-4-4-4-4--------------------------------|
E|-5-5-5-5-------------------------------------2-2-2-2-----------------------|
     I kind of like it in the middle.            is you is or is you ain't
 
e|---------------------------------------------------------------------------|
B|---------------------------------------------------------------------------|
G|---------------------------------------------------------------------------|
D|---------------------------------------------------------------------------|
A|-/4-4-4-4--------------------------------------/-4-4-4-4-------------------|
E|-------------5-5-5-5---------------------------------------------2-2-2-2---|
   Nothing's indelible, everything is sellable, whether you're an animal or vegetable or mineral
 
                                                             Dsus2                  E
e|------------------------------------------------------------0---------------------0-|
B|------------------------------------------------------------3---------------------0-|
G|------------------------------------------------------------2---------------------1-|
D|------------------------------------------------------------0---------------------2-|
A|--/4-4-4-4-----------------------------------/-4-4-4-4------0---------------------2-|
E|----------------5-5-5-5-------------------------------------0---------------------0-|
It's criminal to think, it drives a man to drink am I coming off like my hits don't stink?
 
 
[Chorus]
      A     E                  Bmadd4               Dsus2
e|----0-----0------------------0--------------------2----------------------------|
B|----2-----0------------------3--------------------3----------------------------|
G|----2-----1------------------4--------------------2----------------------------|
D|----2-----2------------------4--------------------0----------------------------|
A|----0-----2------------------2--------------------0----------------------------|
E|----0-----0------------------0--------------------0----------------------------|
C'Mon flip, bend a little bit, maybe get wise to a new tip
 
      A     E                   Bmadd4                  Dsus2
e|----0-----0-------------------0-----------------------2------------------------|
B|----2-----0-------------------3-----------------------3------------------------|
G|----2-----1-------------------4-----------------------2------------------------|
D|----2-----2-------------------4-----------------------0------------------------|
A|----0-----2-------------------2-----------------------0------------------------|
E|----0-----0-------------------0-----------------------0------------------------|
C'Mon flip, take a little trip, see another side of the same ship
 
            A                   E                    Bmadd4             Dsus2
e|----------0-------------------0--------------------0------------------2--------|
B|----------2-------------------0--------------------3------------------3--------|
G|----------2-------------------1--------------------4------------------2--------|
D|----------2-------------------2--------------------4------------------0--------|
A|----------0-------------------2--------------------2------------------0--------|
E|----------0-------------------0--------------------0------------------0--------|
This is the church, this is the steeple, turn up the lights, see all my people
 
      A     E                         Bmadd4                    Dsus2
e|----0-----0-------------------------0-------------------------2----------------|
B|----2-----0-------------------------3-------------------------3----------------|
G|----2-----1-------------------------4-------------------------2----------------|
D|----2-----2-------------------------4-------------------------0----------------|
A|----0-----2-------------------------2-------------------------0----------------|
E|----0-----0-------------------------0-------------------------0----------------|
C'Mon flip, take it for a rip, you're never gonna fly 'til you lose your grip
 
      A     E                         Bmadd4                    Dsus2
e|----0-----0-------------------------0-------------------------2----------------|
B|----2-----0-------------------------3-------------------------3----------------|
G|----2-----1-------------------------4-------------------------2----------------|
D|----2-----2-------------------------4-------------------------0----------------|
A|----0-----2-------------------------2-------------------------0----------------|
E|----0-----0-------------------------0-------------------------0----------------|
Whoa...
 
      A     E                         Bmadd4                    Dsus2
e|----0-----0-------------------------0-------------------------2----------------|
B|----2-----0-------------------------3-------------------------3----------------|
G|----2-----1-------------------------4-------------------------2----------------|
D|----2-----2-------------------------4-------------------------0----------------|
A|----0-----2-------------------------2-------------------------0----------------|
E|----0-----0-------------------------0-------------------------0----------------|
Whoa...
 
[Verse 2]
e|----------------------------------------------------------------------------------|
B|----------------------------------------------------------------------------------|
G|----------------------------------------------------------------------------------|
D|----------------------------------------------------------------------------------|
A|-------------------------------/-4-4-4-4--------------------------------/-4-4-4-4-|
E|-5-5-5-5---------------------------------2-2-2-2----------------------------------|
       Am I living in a bubble?                Am I really out of touch?
 
e|---------------------------------------------------------------------------|
B|----------------------------------------------------------------------------|
G|----------------------------------------------------------------------------|
D|----------------------------------------------------------------------------|
A|-----------------------------------/-4-4-4-4--------------------------------|
E|-5-5-5-5--------------------------------------2-2-2-2-----------------------|
     Do you think I'll get in trouble               if I talk too much?
 
e|---------------------------------------------------------------------------|
B|---------------------------------------------------------------------------|
G|---------------------------------------------------------------------------|
D|---------------------------------------------------------------------------|
A|-/4-4-4-4--------------------------------/-4-4-4-4-------------------------|
E|-------------5-5-5-5---------------------------------2-2-2-2---------------|
Am I too       cynical? A bit too clinical? Maybe that pinnacle's unwinnable subliminal
 
e|----------------------------------------------------------------------------------------------|
B|----------------------------------------------------------------------------------------------|
G|----------------------------------------------------------------------------------------------|
D|----------------------------------------------------------------------------------------------|
A|--/4-4-4-4---------------------------------------/-4-4-4-4---------------------------/4-4-4-4-|
E|------------5-5-5-5--------------------------------------------2-2-2-2------------------------|
Original      sin     yo, tell me where you've been can we get a do-over and start again?
 
   Dsus2                            E
e|-0--------------------------------0-----------------------|
B|-3--------------------------------0-----------------------|
G|-2--------------------------------1-----------------------|
D|-0--------------------------------2-----------------------|
A|-0--------------------------------2-----------------------|
E|-0--------------------------------0-----------------------|
     I can't understand it for you, but I'll try to explain
 
[Chorus]
      A     E                  Bmadd4               Dsus2
e|----0-----0------------------0--------------------2----------------------------|
B|----2-----0------------------3--------------------3----------------------------|
G|----2-----1------------------4--------------------2----------------------------|
D|----2-----2------------------4--------------------0----------------------------|
A|----0-----2------------------2--------------------0----------------------------|
E|----0-----0------------------0--------------------0----------------------------|
C'Mon flip, bend a little bit, maybe get wise to a new tip
 
      A     E                   Bmadd4                  Dsus2
e|----0-----0-------------------0-----------------------2------------------------|
B|----2-----0-------------------3-----------------------3------------------------|
G|----2-----1-------------------4-----------------------2------------------------|
D|----2-----2-------------------4-----------------------0------------------------|
A|----0-----2-------------------2-----------------------0------------------------|
E|----0-----0-------------------0-----------------------0------------------------|
C'Mon flip, take a little trip, see another side of the same ship
 
            A                   E                    Bmadd4             Dsus2
e|----------0-------------------0--------------------0------------------2--------|
B|----------2-------------------0--------------------3------------------3--------|
G|----------2-------------------1--------------------4------------------2--------|
D|----------2-------------------2--------------------4------------------0--------|
A|----------0-------------------2--------------------2------------------0--------|
E|----------0-------------------0--------------------0------------------0--------|
This is the church, this is the steeple, turn up the lights, see all my people
 
      A     E                         Bmadd4                    Dsus2
e|----0-----0-------------------------0-------------------------2----------------|
B|----2-----0-------------------------3-------------------------3----------------|
G|----2-----1-------------------------4-------------------------2----------------|
D|----2-----2-------------------------4-------------------------0----------------|
A|----0-----2-------------------------2-------------------------0----------------|
E|----0-----0-------------------------0-------------------------0----------------|
C'Mon flip, take it for a rip, you're never gonna fly 'til you lose your grip
 
      A     E                         Bmadd4                    Dsus2
e|----0-----0-------------------------0-------------------------2----------------|
B|----2-----0-------------------------3-------------------------3----------------|
G|----2-----1-------------------------4-------------------------2----------------|
D|----2-----2-------------------------4-------------------------0----------------|
A|----0-----2-------------------------2-------------------------0----------------|
E|----0-----0-------------------------0-------------------------0----------------|
Whoa...
 
      A     E                         Bmadd4                    Dsus2
e|----0-----0-------------------------0-------------------------2----------------|
B|----2-----0-------------------------3-------------------------3----------------|
G|----2-----1-------------------------4-------------------------2----------------|
D|----2-----2-------------------------4-------------------------0----------------|
A|----0-----2-------------------------2-------------------------0----------------|
E|----0-----0-------------------------0-------------------------0----------------|
Whoa...
 
[Bridge]
   Bmadd4       E                         A                             Dsus2
e|-0------------0-------------------------0-----------------------------0--------|
B|-3------------0-------------------------2-----------------------------3--------|
G|-4------------1-------------------------2-----------------------------2--------|
D|-4------------2-------------------------2-----------------------------0--------|
A|-2------------2-------------------------0-----------------------------0--------|
E|-0------------0-------------------------0-----------------------------0--------|
 Ooo, look at the stars, some of them are long gone, and yet there they are
 
   Bmadd4       E                  A                         Dsus2
e|-0------------0------------------0--------------------------0--------|
B|-3------------0------------------2--------------------------3--------|
G|-4------------1------------------2--------------------------2--------|
D|-4------------2------------------2--------------------------0--------|
A|-2------------2------------------0--------------------------0--------|
E|-0------------0------------------0--------------------------0--------|
 Ooo, and so it goes because we believe it it doesn't make it so, so, so
 
[Chorus]
      A     E                  Bmadd4               Dsus2
e|----0-----0------------------0--------------------2----------------------------|
B|----2-----0------------------3--------------------3----------------------------|
G|----2-----1------------------4--------------------2----------------------------|
D|----2-----2------------------4--------------------0----------------------------|
A|----0-----2------------------2--------------------0----------------------------|
E|----0-----0------------------0--------------------0----------------------------|
C'Mon flip, bend a little bit, maybe get wise to a new tip
 
      A     E                  Bmadd4                  Dsus2
e|----0-----0-------------------0-----------------------2------------------------|
B|----2-----0-------------------3-----------------------3------------------------|
G|----2-----1-------------------4-----------------------2------------------------|
D|----2-----2-------------------4-----------------------0------------------------|
A|----0-----2-------------------2-----------------------0------------------------|
E|----0-----0-------------------0-----------------------0------------------------|
C'Mon flip, take a little trip, see another side of the same ship
 
            A                   E                    Bmadd4             Dsus2
e|----------0-------------------0--------------------0------------------2--------|
B|----------2-------------------0--------------------3------------------3--------|
G|----------2-------------------1--------------------4------------------2--------|
D|----------2-------------------2--------------------4------------------0--------|
A|----------0-------------------2--------------------2------------------0--------|
E|----------0-------------------0--------------------0------------------0--------|
This is the church, this is the steeple, turn up the lights, see all my people
 
      A     E                         Bmadd4                    Dsus2
e|----0-----0-------------------------0-------------------------2----------------|
B|----2-----0-------------------------3-------------------------3----------------|
G|----2-----1-------------------------4-------------------------2----------------|
D|----2-----2-------------------------4-------------------------0----------------|
A|----0-----2-------------------------2-------------------------0----------------|
E|----0-----0-------------------------0-------------------------0----------------|
C'Mon flip, take it for a rip, you're never gonna fly 'til you lose your grip
 
      A     E                         Bmadd4                    Dsus2
e|----0-----0-------------------------0-------------------------2----------------|
B|----2-----0-------------------------3-------------------------3----------------|
G|----2-----1-------------------------4-------------------------2----------------|
D|----2-----2-------------------------4-------------------------0----------------|
A|----0-----2-------------------------2-------------------------0----------------|
E|----0-----0-------------------------0-------------------------0----------------|
Whoa...
 
      A     E                         Bmadd4                    Dsus2
e|----0-----0-------------------------0-------------------------2----------------|
B|----2-----0-------------------------3-------------------------3----------------|
G|----2-----1-------------------------4-------------------------2----------------|
D|----2-----2-------------------------4-------------------------0----------------|
A|----0-----2-------------------------2-------------------------0----------------|
E|----0-----0-------------------------0-------------------------0----------------|
Whoa...
 
[Outro]
      A
e|----0---------------------------------|
B|----2---------------------------------|
G|----2---------------------------------|
D|----2---------------------------------|
A|----0---------------------------------|
E|----0---------------------------------|
     Flip!
            

See also  Israel's Itinerary (Part 3): *Here Comes The Church [Daniel 9:26-27] | Matthew Maher | CCOC | ivy chords | Website providing Australia's #1 song chords

You can find more useful information here: https://australia.xemloibaihat.com/chord/

Barenaked Ladies – Flip Tabs | Ver. 1
And searches related to this topic

#Barenaked #Ladies #Flip #Tabs #Ver

See also  JOJO – The Change Chords and Tabs for Guitar and Piano | The site that provides the most complete music chords

Barenaked Ladies – Flip Tabs | Ver. 1

>>See more useful information provided by us here: See more here.

Review the information related to the topic Barenaked Ladies – Flip Tabs | Ver. 1
again

Australia.xemloibaihat.com | Barenaked Ladies – Flip Tabs | Ver. 1


[Intro]
 Flip!
(Drums and Vocals Only)
 
[Verse 1]
e|----------------------------------------------------------------------------------|
B|----------------------------------------------------------------------------------|
G|----------------------------------------------------------------------------------|
D|----------------------------------------------------------------------------------|
A|-------------------------------/-4-4-4-4--------------------------------/-4-4-4-4-|
E|-5-5-5-5---------------------------------2-2-2-2----------------------------------|
       I could be a little devil             or I could be a little saint
 
e|---------------------------------------------------------------------------|
B|---------------------------------------------------------------------------|
G|---------------------------------------------------------------------------|
D|---------------------------------------------------------------------------|
A|----------------------------------/-4-4-4-4--------------------------------|
E|-5-5-5-5-------------------------------------2-2-2-2-----------------------|
     I kind of like it in the middle.            is you is or is you ain't
 
e|---------------------------------------------------------------------------|
B|---------------------------------------------------------------------------|
G|---------------------------------------------------------------------------|
D|---------------------------------------------------------------------------|
A|-/4-4-4-4--------------------------------------/-4-4-4-4-------------------|
E|-------------5-5-5-5---------------------------------------------2-2-2-2---|
   Nothing's indelible, everything is sellable, whether you're an animal or vegetable or mineral
 
                                                             Dsus2                  E
e|------------------------------------------------------------0---------------------0-|
B|------------------------------------------------------------3---------------------0-|
G|------------------------------------------------------------2---------------------1-|
D|------------------------------------------------------------0---------------------2-|
A|--/4-4-4-4-----------------------------------/-4-4-4-4------0---------------------2-|
E|----------------5-5-5-5-------------------------------------0---------------------0-|
It's criminal to think, it drives a man to drink am I coming off like my hits don't stink?
 
 
[Chorus]
      A     E                  Bmadd4               Dsus2
e|----0-----0------------------0--------------------2----------------------------|
B|----2-----0------------------3--------------------3----------------------------|
G|----2-----1------------------4--------------------2----------------------------|
D|----2-----2------------------4--------------------0----------------------------|
A|----0-----2------------------2--------------------0----------------------------|
E|----0-----0------------------0--------------------0----------------------------|
C'Mon flip, bend a little bit, maybe get wise to a new tip
 
      A     E                   Bmadd4                  Dsus2
e|----0-----0-------------------0-----------------------2------------------------|
B|----2-----0-------------------3-----------------------3------------------------|
G|----2-----1-------------------4-----------------------2------------------------|
D|----2-----2-------------------4-----------------------0------------------------|
A|----0-----2-------------------2-----------------------0------------------------|
E|----0-----0-------------------0-----------------------0------------------------|
C'Mon flip, take a little trip, see another side of the same ship
 
            A                   E                    Bmadd4             Dsus2
e|----------0-------------------0--------------------0------------------2--------|
B|----------2-------------------0--------------------3------------------3--------|
G|----------2-------------------1--------------------4------------------2--------|
D|----------2-------------------2--------------------4------------------0--------|
A|----------0-------------------2--------------------2------------------0--------|
E|----------0-------------------0--------------------0------------------0--------|
This is the church, this is the steeple, turn up the lights, see all my people
 
      A     E                         Bmadd4                    Dsus2
e|----0-----0-------------------------0-------------------------2----------------|
B|----2-----0-------------------------3-------------------------3----------------|
G|----2-----1-------------------------4-------------------------2----------------|
D|----2-----2-------------------------4-------------------------0----------------|
A|----0-----2-------------------------2-------------------------0----------------|
E|----0-----0-------------------------0-------------------------0----------------|
C'Mon flip, take it for a rip, you're never gonna fly 'til you lose your grip
 
      A     E                         Bmadd4                    Dsus2
e|----0-----0-------------------------0-------------------------2----------------|
B|----2-----0-------------------------3-------------------------3----------------|
G|----2-----1-------------------------4-------------------------2----------------|
D|----2-----2-------------------------4-------------------------0----------------|
A|----0-----2-------------------------2-------------------------0----------------|
E|----0-----0-------------------------0-------------------------0----------------|
Whoa...
 
      A     E                         Bmadd4                    Dsus2
e|----0-----0-------------------------0-------------------------2----------------|
B|----2-----0-------------------------3-------------------------3----------------|
G|----2-----1-------------------------4-------------------------2----------------|
D|----2-----2-------------------------4-------------------------0----------------|
A|----0-----2-------------------------2-------------------------0----------------|
E|----0-----0-------------------------0-------------------------0----------------|
Whoa...
 
[Verse 2]
e|----------------------------------------------------------------------------------|
B|----------------------------------------------------------------------------------|
G|----------------------------------------------------------------------------------|
D|----------------------------------------------------------------------------------|
A|-------------------------------/-4-4-4-4--------------------------------/-4-4-4-4-|
E|-5-5-5-5---------------------------------2-2-2-2----------------------------------|
       Am I living in a bubble?                Am I really out of touch?
 
e|---------------------------------------------------------------------------|
B|----------------------------------------------------------------------------|
G|----------------------------------------------------------------------------|
D|----------------------------------------------------------------------------|
A|-----------------------------------/-4-4-4-4--------------------------------|
E|-5-5-5-5--------------------------------------2-2-2-2-----------------------|
     Do you think I'll get in trouble               if I talk too much?
 
e|---------------------------------------------------------------------------|
B|---------------------------------------------------------------------------|
G|---------------------------------------------------------------------------|
D|---------------------------------------------------------------------------|
A|-/4-4-4-4--------------------------------/-4-4-4-4-------------------------|
E|-------------5-5-5-5---------------------------------2-2-2-2---------------|
Am I too       cynical? A bit too clinical? Maybe that pinnacle's unwinnable subliminal
 
e|----------------------------------------------------------------------------------------------|
B|----------------------------------------------------------------------------------------------|
G|----------------------------------------------------------------------------------------------|
D|----------------------------------------------------------------------------------------------|
A|--/4-4-4-4---------------------------------------/-4-4-4-4---------------------------/4-4-4-4-|
E|------------5-5-5-5--------------------------------------------2-2-2-2------------------------|
Original      sin     yo, tell me where you've been can we get a do-over and start again?
 
   Dsus2                            E
e|-0--------------------------------0-----------------------|
B|-3--------------------------------0-----------------------|
G|-2--------------------------------1-----------------------|
D|-0--------------------------------2-----------------------|
A|-0--------------------------------2-----------------------|
E|-0--------------------------------0-----------------------|
     I can't understand it for you, but I'll try to explain
 
[Chorus]
      A     E                  Bmadd4               Dsus2
e|----0-----0------------------0--------------------2----------------------------|
B|----2-----0------------------3--------------------3----------------------------|
G|----2-----1------------------4--------------------2----------------------------|
D|----2-----2------------------4--------------------0----------------------------|
A|----0-----2------------------2--------------------0----------------------------|
E|----0-----0------------------0--------------------0----------------------------|
C'Mon flip, bend a little bit, maybe get wise to a new tip
 
      A     E                   Bmadd4                  Dsus2
e|----0-----0-------------------0-----------------------2------------------------|
B|----2-----0-------------------3-----------------------3------------------------|
G|----2-----1-------------------4-----------------------2------------------------|
D|----2-----2-------------------4-----------------------0------------------------|
A|----0-----2-------------------2-----------------------0------------------------|
E|----0-----0-------------------0-----------------------0------------------------|
C'Mon flip, take a little trip, see another side of the same ship
 
            A                   E                    Bmadd4             Dsus2
e|----------0-------------------0--------------------0------------------2--------|
B|----------2-------------------0--------------------3------------------3--------|
G|----------2-------------------1--------------------4------------------2--------|
D|----------2-------------------2--------------------4------------------0--------|
A|----------0-------------------2--------------------2------------------0--------|
E|----------0-------------------0--------------------0------------------0--------|
This is the church, this is the steeple, turn up the lights, see all my people
 
      A     E                         Bmadd4                    Dsus2
e|----0-----0-------------------------0-------------------------2----------------|
B|----2-----0-------------------------3-------------------------3----------------|
G|----2-----1-------------------------4-------------------------2----------------|
D|----2-----2-------------------------4-------------------------0----------------|
A|----0-----2-------------------------2-------------------------0----------------|
E|----0-----0-------------------------0-------------------------0----------------|
C'Mon flip, take it for a rip, you're never gonna fly 'til you lose your grip
 
      A     E                         Bmadd4                    Dsus2
e|----0-----0-------------------------0-------------------------2----------------|
B|----2-----0-------------------------3-------------------------3----------------|
G|----2-----1-------------------------4-------------------------2----------------|
D|----2-----2-------------------------4-------------------------0----------------|
A|----0-----2-------------------------2-------------------------0----------------|
E|----0-----0-------------------------0-------------------------0----------------|
Whoa...
 
      A     E                         Bmadd4                    Dsus2
e|----0-----0-------------------------0-------------------------2----------------|
B|----2-----0-------------------------3-------------------------3----------------|
G|----2-----1-------------------------4-------------------------2----------------|
D|----2-----2-------------------------4-------------------------0----------------|
A|----0-----2-------------------------2-------------------------0----------------|
E|----0-----0-------------------------0-------------------------0----------------|
Whoa...
 
[Bridge]
   Bmadd4       E                         A                             Dsus2
e|-0------------0-------------------------0-----------------------------0--------|
B|-3------------0-------------------------2-----------------------------3--------|
G|-4------------1-------------------------2-----------------------------2--------|
D|-4------------2-------------------------2-----------------------------0--------|
A|-2------------2-------------------------0-----------------------------0--------|
E|-0------------0-------------------------0-----------------------------0--------|
 Ooo, look at the stars, some of them are long gone, and yet there they are
 
   Bmadd4       E                  A                         Dsus2
e|-0------------0------------------0--------------------------0--------|
B|-3------------0------------------2--------------------------3--------|
G|-4------------1------------------2--------------------------2--------|
D|-4------------2------------------2--------------------------0--------|
A|-2------------2------------------0--------------------------0--------|
E|-0------------0------------------0--------------------------0--------|
 Ooo, and so it goes because we believe it it doesn't make it so, so, so
 
[Chorus]
      A     E                  Bmadd4               Dsus2
e|----0-----0------------------0--------------------2----------------------------|
B|----2-----0------------------3--------------------3----------------------------|
G|----2-----1------------------4--------------------2----------------------------|
D|----2-----2------------------4--------------------0----------------------------|
A|----0-----2------------------2--------------------0----------------------------|
E|----0-----0------------------0--------------------0----------------------------|
C'Mon flip, bend a little bit, maybe get wise to a new tip
 
      A     E                  Bmadd4                  Dsus2
e|----0-----0-------------------0-----------------------2------------------------|
B|----2-----0-------------------3-----------------------3------------------------|
G|----2-----1-------------------4-----------------------2------------------------|
D|----2-----2-------------------4-----------------------0------------------------|
A|----0-----2-------------------2-----------------------0------------------------|
E|----0-----0-------------------0-----------------------0------------------------|
C'Mon flip, take a little trip, see another side of the same ship
 
            A                   E                    Bmadd4             Dsus2
e|----------0-------------------0--------------------0------------------2--------|
B|----------2-------------------0--------------------3------------------3--------|
G|----------2-------------------1--------------------4------------------2--------|
D|----------2-------------------2--------------------4------------------0--------|
A|----------0-------------------2--------------------2------------------0--------|
E|----------0-------------------0--------------------0------------------0--------|
This is the church, this is the steeple, turn up the lights, see all my people
 
      A     E                         Bmadd4                    Dsus2
e|----0-----0-------------------------0-------------------------2----------------|
B|----2-----0-------------------------3-------------------------3----------------|
G|----2-----1-------------------------4-------------------------2----------------|
D|----2-----2-------------------------4-------------------------0----------------|
A|----0-----2-------------------------2-------------------------0----------------|
E|----0-----0-------------------------0-------------------------0----------------|
C'Mon flip, take it for a rip, you're never gonna fly 'til you lose your grip
 
      A     E                         Bmadd4                    Dsus2
e|----0-----0-------------------------0-------------------------2----------------|
B|----2-----0-------------------------3-------------------------3----------------|
G|----2-----1-------------------------4-------------------------2----------------|
D|----2-----2-------------------------4-------------------------0----------------|
A|----0-----2-------------------------2-------------------------0----------------|
E|----0-----0-------------------------0-------------------------0----------------|
Whoa...
 
      A     E                         Bmadd4                    Dsus2
e|----0-----0-------------------------0-------------------------2----------------|
B|----2-----0-------------------------3-------------------------3----------------|
G|----2-----1-------------------------4-------------------------2----------------|
D|----2-----2-------------------------4-------------------------0----------------|
A|----0-----2-------------------------2-------------------------0----------------|
E|----0-----0-------------------------0-------------------------0----------------|
Whoa...
 
[Outro]
      A
e|----0---------------------------------|
B|----2---------------------------------|
G|----2---------------------------------|
D|----2---------------------------------|
A|----0---------------------------------|
E|----0---------------------------------|
     Flip!
            

See also  Taeyang - Wedding Dress Chords | The site that provides the most complete music chords

Thank you very much for your interest in our article. We hope this information is of great value to you.

Leave a Reply

Your email address will not be published.