Ben&Ben – Fall Bass | Ver. 1 | The site that provides the most complete music chords

Are you looking for a topic Ben&Ben – Fall Bass | Ver. 1
right? If so, then you can watch it right here.

Ben&Ben – Fall Bass | Ver. 1
| You can find many other song chords here

Australia.xemloibaihat.com | Ben&Ben – Fall Bass | Ver. 1


[Intro]
 
G|-----------------------------------------|
D|------11-------------11------------------|
A|--3/9----/13--11--9-----13--11-11-11-11--|
E|-----------------------------------------|
 
G|-----------------------------------------|
D|-----------------------------------------|
A|-99999----------------------------99999--|
E|-------999999----66666----44444----------|
 
G|-----------------------------------------|
D|-----------------------------------------|
A|-----------------------------------------|
E|-99999--66666---44444-----/9-------------|
 
[Verse 1]
 
G|-----------------------------------------|
D|-----------------------------------------|
A|-----------------------------------------|
E|-----------------------------------------|
 
G|---------------------11/13/11-11---------|
D|-----------------11-------------10h11----|
A|-/9--44444---/9----------------------11--|
E|-----------------------------------------|
 
G|-----------------------------------------|
D|---------------------------11h13---------|
A|--44444--/9----9-----11h13---------------|
E|-------------9---------------------------|
 
G|-----------------------------------------|
D|-----------------------------------------|
A|---44444--/9----9----9h11---8h9----------|
E|--------------9--------------------------|
 
[Pre Chorus]
 
G|-----------------------------------------|
D|----8----6---------8-----6---------------|
A|--6------------6-------------------------|
E|------6---------------6------------------|
 
[Chorus]
 
G|-----------------------------------------|
D|--6/11-11-11-11--------------------------|
A|---------------13-13-13-13-1399999-------|
E|-----------------------------------------|
 
 
[Verse 2]
 
G|-------8/10--8---------------------------|
D|-----8-------------------10-----10h11----|
A|--6--------------8/11--------------------|
E|-----------------------------------------|
 
G|-----------11/13--11-----------13--11----|
D|------11---------------------------------|
A|--9------------------11h13r11------------|
E|-----------------------------------------|
 
G|-------8/10--8---------------------------|
D|-----8-------------------10-----10h11----|
A|--6--------------8/11--------------------|
E|-----------------------------------------|
 
G|-----------11/13--11-----------13--11----|
D|------11---------------------------------|
A|--9------------------11h13r11------------|
E|-----------------------------------------|
 
G|-----------------------------------------|
D|-----------------------------------------|
A|--66666-88888-99999-13-13-13-13-11-11-11-|
E|-----------------------------------------|
 
G|-----------------------------------------|
D|-----------------------------------------|
A|-66666-88888-99999-11-11-11-11-11--------|
E|-----------------------------------------|
 
[Chorus]
 
G|-----------------------------------------|
D|-----------------------------------------|
A|-4444444---------------------------------|
E|---------666666-222222---68942222--------|
 
G|-----------------------------------------|
D|-----------------------------------------|
A|-------444444----------------------------|
E|--4444--------666666--222222-------------|
 
G|-----------------------------------------|
D|-----------------------------------------|
A|------89---------------------------------|
E|--689--------68942-----------------------|
            

You can find more useful information here: See more here

Ben&Ben – Fall Bass | Ver. 1
And searches related to this topic

#BenBen #Fall #Bass #Ver

Ben&Ben – Fall Bass | Ver. 1

>>See more useful information provided by us here: See more here.

Review the information related to the topic Ben&Ben – Fall Bass | Ver. 1
again

Australia.xemloibaihat.com | Ben&Ben – Fall Bass | Ver. 1


[Intro]
 
G|-----------------------------------------|
D|------11-------------11------------------|
A|--3/9----/13--11--9-----13--11-11-11-11--|
E|-----------------------------------------|
 
G|-----------------------------------------|
D|-----------------------------------------|
A|-99999----------------------------99999--|
E|-------999999----66666----44444----------|
 
G|-----------------------------------------|
D|-----------------------------------------|
A|-----------------------------------------|
E|-99999--66666---44444-----/9-------------|
 
[Verse 1]
 
G|-----------------------------------------|
D|-----------------------------------------|
A|-----------------------------------------|
E|-----------------------------------------|
 
G|---------------------11/13/11-11---------|
D|-----------------11-------------10h11----|
A|-/9--44444---/9----------------------11--|
E|-----------------------------------------|
 
G|-----------------------------------------|
D|---------------------------11h13---------|
A|--44444--/9----9-----11h13---------------|
E|-------------9---------------------------|
 
G|-----------------------------------------|
D|-----------------------------------------|
A|---44444--/9----9----9h11---8h9----------|
E|--------------9--------------------------|
 
[Pre Chorus]
 
G|-----------------------------------------|
D|----8----6---------8-----6---------------|
A|--6------------6-------------------------|
E|------6---------------6------------------|
 
[Chorus]
 
G|-----------------------------------------|
D|--6/11-11-11-11--------------------------|
A|---------------13-13-13-13-1399999-------|
E|-----------------------------------------|
 
 
[Verse 2]
 
G|-------8/10--8---------------------------|
D|-----8-------------------10-----10h11----|
A|--6--------------8/11--------------------|
E|-----------------------------------------|
 
G|-----------11/13--11-----------13--11----|
D|------11---------------------------------|
A|--9------------------11h13r11------------|
E|-----------------------------------------|
 
G|-------8/10--8---------------------------|
D|-----8-------------------10-----10h11----|
A|--6--------------8/11--------------------|
E|-----------------------------------------|
 
G|-----------11/13--11-----------13--11----|
D|------11---------------------------------|
A|--9------------------11h13r11------------|
E|-----------------------------------------|
 
G|-----------------------------------------|
D|-----------------------------------------|
A|--66666-88888-99999-13-13-13-13-11-11-11-|
E|-----------------------------------------|
 
G|-----------------------------------------|
D|-----------------------------------------|
A|-66666-88888-99999-11-11-11-11-11--------|
E|-----------------------------------------|
 
[Chorus]
 
G|-----------------------------------------|
D|-----------------------------------------|
A|-4444444---------------------------------|
E|---------666666-222222---68942222--------|
 
G|-----------------------------------------|
D|-----------------------------------------|
A|-------444444----------------------------|
E|--4444--------666666--222222-------------|
 
G|-----------------------------------------|
D|-----------------------------------------|
A|------89---------------------------------|
E|--689--------68942-----------------------|
            

Thank you very much for your interest in our article. We hope this information is of great value to you.

Leave a Reply

Your email address will not be published. Required fields are marked *