Home » Bts – Fake Love Tabs | Ver. 1 | The site that provides the most complete music chords

Bts – Fake Love Tabs | Ver. 1 | The site that provides the most complete music chords

by Andy Frank

Are you looking for a topic Bts – Fake Love Tabs | Ver. 1
right? If so, then you can watch it right here.

Bts – Fake Love Tabs | Ver. 1
| You can find many other song chords here

Australia.xemloibaihat.com | Bts – Fake Love Tabs | Ver. 1


[Intro]
 
e|-----------------------------------------|
B|------------------5-------3--------------|
G|---------------/5--5---/4-4--------------|
D|---2-----2-------------------------------| X2
A|--0-0--0--0-0-------0--------------------|
E|-1----3----------------------------------|
 
[verse 1]
 
e|--------------------------------------------0------------|
B|-----0-1-0-1-0-1-0-1-0-0-0-0-0-0-1-0---1----3------------|
G|-2-2-------------------------------------2-----/4--4-----|
D|---------------------------------------------------------| X2
A|-----------------------------------------0-----0---------|
E|-------1----------------3--------------------------------|
 
e|--------------------------------------------------------------|
B|-----1-1h3-3-1-3-3-1-3-1---1-1h3-3-1-3-3-1--1h3-3-1-----------|
G|-2-2-----------------------2-2--------------------------------|
D|--------------------------------------------------------------|
A|----------------------------------0----------------0----------|
E|-------1----------------3-------------------------------------|
 
e|--------------------------------------------0-------0---0-0---|
B|-----0-1-0-1-0-1-0-1-0-0-0-0-0-0-1-0---1----------------------|
G|-2-2-------------------------------------2------2-------------|
D|------------------------------------------------2-2-----------|
A|-----------------------------------------0-----0--------------|
E|-------1----------------3-------------------------------------|
 
[Chorus]
 
e|-0h3-3-0—0h3-3-0—0h3-3-0-------0----------------------|
B|-1----------1---------1-----------1----3-1h3----------|
G|----------------------------------2-------------------|
D|------------------------------------------------------|
A|-----------------------0---------0--------------------|
E|-1--------3--------------------------3----------------|
 
e|-0h3-3-0—0h3-3-0—0h3-3-0-------------------------------|
B|-1----------1---------1-----------1--------------------|
G|----------------------------------2--------------------|
D|-------------------------------------------------------|
A|-----------------------0---------0---------------------|
E|-1--------3--------------------------3-----------------|
 
[Verse 2]
 
e|----------------------------------------------------------------|
B|-----0-1---1-0---------1-0------0-1--1-0-1-----------1-0-------|
G|-2-2----2-----2-2-/5------2-2-2---2--------2-2-/5-------2-------|
D|-----------------------7------------------------------7---------|
A|---------------------0------------------------------0-----------|
E|-------1------3-----------3--------1------3---------------3-----|
 
e|---------------------------------------------------------|
B|-------------------------------------0-0-0-1-------------|
G|--------------------------0-0-0-2-2----------------------|
D|--0h2-2-0-2-0-0-0-0-2------------------------------------|
A|--------------------------0---------0--------------------|
E|-1--------------3----------------------------------------|
 
e|---------------------------------------------------------------|
B|-0h1-1-1-0h1-1-1-0-0-0-0----------------------0-0-0-1----------|
G|-----------------------------2—0h2-2-2-0h2-2-2-----------------|
D|---------------------------------------------------------------|
A|---------------------------------0-----------------0-----------|
E|-1------------------3------------------------------------------|
 
e|--------------------------------------------0--------------|
B|-----0-1-0-1-0-1-0-1-0-0-0-0-0-0-1-0---1----3--------------|
G|-2-2-------------------------------------2-----/4--4-------|
D|-----------------------------------------------------------| X2
A|-----------------------------------------0-----0-----------|
E|-------1----------------3----------------------------------|
 
e|----------------------------------------------------------------|
B|-----1-1h3-3-1-3-3-1-3-1---1-1h3-3-1-3-3-1--1h3-3-1-------------|
G|-2-2-----------------------2-2----------------------------------|
D|----------------------------------------------------------------|
A|----------------------------------0----------------0------------|
E|-------1----------------3---------------------------------------|
 
e|--------------------------------------------0-----------------|
B|-----0-1-0-1-0-1-0-1-0-0-0-0-0-0-1-0---1----------------------|
G|-2-2-------------------------------------2------2-------------|
D|------------------------------------------------2-2-----------|
A|-----------------------------------------0-----0--------------|
E|-------1----------------3-------------------------------------|
 
e|-------------------------------------------------------0-----------0---|
B|-3-3-1-1h3--3-3-1-1h3--3-3-1-----------------------3-1--------3-1------|
G|----------------------------------/7-7-5-7-7-5-5h7-------0h2-----------|
D|-----------------------------------------------------------------------|
A|----------------------------------0--------------0---------------------|
E|--------1----------------3----------------------------------1----------|
 
e|-----------------------------------------------|
B|-------3-3-1-----------------------------------|
G|-0h2--------/7-7-5-7-7-5-5h7-------------------|
D|-----------------------------------------------|
A|--------------0--------------0-----------------|
E|------3----------------------------------------|
 
e|-------------------------------------------------------0-----------0-------|
B|-3-3-1-1h3--3-3-1-1h3--3-3-1-----------------------3-1--------3-1----------|
G|----------------------------------/7-7-5-7-7-5-5h7-------0h2---------------|
D|---------------------------------------------------------------------------|
A|----------------------------------0--------------0-------------------------|
E|--------1----------------3----------------------------------1--------------|
 
e|----------------------------------0-0-0-0------|
B|-------3-3-1-----------------------------------|
G|-0h2--------/7-7-5-7-7-5-5h7-------------------|
D|-----------------------------------------------|
A|--------------0--------------0-----------------|
E|------3----------------------------------------|
 
[Chorus]
 
e|-0h3-3-0—0h3-3-0—0h3-3-0-------0----------------------|
B|-1----------1---------1-----------1----3-1h3----------|
G|----------------------------------2-------------------|
D|------------------------------------------------------|
A|-----------------------0---------0--------------------|
E|-1--------3--------------------------3----------------|
 
e|-0h3-3-0—0h3-3-0—0h3-3-0-------------------------------|
B|-1----------1---------1-----------1--------------------|
G|----------------------------------2--------------------|
D|-------------------------------------------------------|
A|-----------------------0---------0---------------------|
E|-1--------3--------------------------3-----------------|
 
e|--------------------------------------------0--------------|
B|-----0-1-0-1-0-1-0-1-0-0-0-0-0-0-1-0---1----3--------------|
G|-2-2-------------------------------------2-----/4--4-------|
D|-----------------------------------------------------------| X2
A|-----------------------------------------0-----0-----------|
E|-------1----------------3----------------------------------|
 
e|----------------------------------------------------------------|
B|-----1-1h3-3-1-3-3-1-3-1---1-1h3-3-1-3-3-1--1h3-3-1-------------|
G|-2-2-----------------------2-2----------------------------------|
D|----------------------------------------------------------------|
A|----------------------------------0----------------0------------|
E|-------1----------------3---------------------------------------|
 
e|--------------------------------------------0--------------|
B|-----0-1-0-1-0-1-0-1-0-0-0-0-0-0-1-0---1----3--------------|
G|-2-2-------------------------------------2-----/4--4-------|
D|-----------------------------------------------------------|
A|-----------------------------------------0-----0-----------|
E|-------1----------------3----------------------------------|
 
[Outro]
 
e|-----------------------------------------|
B|------------------5-------3--------------|
G|---------------/5--5---/4-4--------------|
D|---2-----2-------------------------------| X2
A|--0-0--0--0-0-------0--------------------|
E|-1----3----------------------------------|
            

You can find more useful information here: Australia.xemloibaihat.com/chord

Bts – Fake Love Tabs | Ver. 1
And searches related to this topic

#Bts #Fake #Love #Tabs #Ver

Bts – Fake Love Tabs | Ver. 1

>>See more useful information provided by us here: https://australia.xemloibaihat.com.

Review the information related to the topic Bts – Fake Love Tabs | Ver. 1
again

Australia.xemloibaihat.com | Bts – Fake Love Tabs | Ver. 1


[Intro]
 
e|-----------------------------------------|
B|------------------5-------3--------------|
G|---------------/5--5---/4-4--------------|
D|---2-----2-------------------------------| X2
A|--0-0--0--0-0-------0--------------------|
E|-1----3----------------------------------|
 
[verse 1]
 
e|--------------------------------------------0------------|
B|-----0-1-0-1-0-1-0-1-0-0-0-0-0-0-1-0---1----3------------|
G|-2-2-------------------------------------2-----/4--4-----|
D|---------------------------------------------------------| X2
A|-----------------------------------------0-----0---------|
E|-------1----------------3--------------------------------|
 
e|--------------------------------------------------------------|
B|-----1-1h3-3-1-3-3-1-3-1---1-1h3-3-1-3-3-1--1h3-3-1-----------|
G|-2-2-----------------------2-2--------------------------------|
D|--------------------------------------------------------------|
A|----------------------------------0----------------0----------|
E|-------1----------------3-------------------------------------|
 
e|--------------------------------------------0-------0---0-0---|
B|-----0-1-0-1-0-1-0-1-0-0-0-0-0-0-1-0---1----------------------|
G|-2-2-------------------------------------2------2-------------|
D|------------------------------------------------2-2-----------|
A|-----------------------------------------0-----0--------------|
E|-------1----------------3-------------------------------------|
 
[Chorus]
 
e|-0h3-3-0—0h3-3-0—0h3-3-0-------0----------------------|
B|-1----------1---------1-----------1----3-1h3----------|
G|----------------------------------2-------------------|
D|------------------------------------------------------|
A|-----------------------0---------0--------------------|
E|-1--------3--------------------------3----------------|
 
e|-0h3-3-0—0h3-3-0—0h3-3-0-------------------------------|
B|-1----------1---------1-----------1--------------------|
G|----------------------------------2--------------------|
D|-------------------------------------------------------|
A|-----------------------0---------0---------------------|
E|-1--------3--------------------------3-----------------|
 
[Verse 2]
 
e|----------------------------------------------------------------|
B|-----0-1---1-0---------1-0------0-1--1-0-1-----------1-0-------|
G|-2-2----2-----2-2-/5------2-2-2---2--------2-2-/5-------2-------|
D|-----------------------7------------------------------7---------|
A|---------------------0------------------------------0-----------|
E|-------1------3-----------3--------1------3---------------3-----|
 
e|---------------------------------------------------------|
B|-------------------------------------0-0-0-1-------------|
G|--------------------------0-0-0-2-2----------------------|
D|--0h2-2-0-2-0-0-0-0-2------------------------------------|
A|--------------------------0---------0--------------------|
E|-1--------------3----------------------------------------|
 
e|---------------------------------------------------------------|
B|-0h1-1-1-0h1-1-1-0-0-0-0----------------------0-0-0-1----------|
G|-----------------------------2—0h2-2-2-0h2-2-2-----------------|
D|---------------------------------------------------------------|
A|---------------------------------0-----------------0-----------|
E|-1------------------3------------------------------------------|
 
e|--------------------------------------------0--------------|
B|-----0-1-0-1-0-1-0-1-0-0-0-0-0-0-1-0---1----3--------------|
G|-2-2-------------------------------------2-----/4--4-------|
D|-----------------------------------------------------------| X2
A|-----------------------------------------0-----0-----------|
E|-------1----------------3----------------------------------|
 
e|----------------------------------------------------------------|
B|-----1-1h3-3-1-3-3-1-3-1---1-1h3-3-1-3-3-1--1h3-3-1-------------|
G|-2-2-----------------------2-2----------------------------------|
D|----------------------------------------------------------------|
A|----------------------------------0----------------0------------|
E|-------1----------------3---------------------------------------|
 
e|--------------------------------------------0-----------------|
B|-----0-1-0-1-0-1-0-1-0-0-0-0-0-0-1-0---1----------------------|
G|-2-2-------------------------------------2------2-------------|
D|------------------------------------------------2-2-----------|
A|-----------------------------------------0-----0--------------|
E|-------1----------------3-------------------------------------|
 
e|-------------------------------------------------------0-----------0---|
B|-3-3-1-1h3--3-3-1-1h3--3-3-1-----------------------3-1--------3-1------|
G|----------------------------------/7-7-5-7-7-5-5h7-------0h2-----------|
D|-----------------------------------------------------------------------|
A|----------------------------------0--------------0---------------------|
E|--------1----------------3----------------------------------1----------|
 
e|-----------------------------------------------|
B|-------3-3-1-----------------------------------|
G|-0h2--------/7-7-5-7-7-5-5h7-------------------|
D|-----------------------------------------------|
A|--------------0--------------0-----------------|
E|------3----------------------------------------|
 
e|-------------------------------------------------------0-----------0-------|
B|-3-3-1-1h3--3-3-1-1h3--3-3-1-----------------------3-1--------3-1----------|
G|----------------------------------/7-7-5-7-7-5-5h7-------0h2---------------|
D|---------------------------------------------------------------------------|
A|----------------------------------0--------------0-------------------------|
E|--------1----------------3----------------------------------1--------------|
 
e|----------------------------------0-0-0-0------|
B|-------3-3-1-----------------------------------|
G|-0h2--------/7-7-5-7-7-5-5h7-------------------|
D|-----------------------------------------------|
A|--------------0--------------0-----------------|
E|------3----------------------------------------|
 
[Chorus]
 
e|-0h3-3-0—0h3-3-0—0h3-3-0-------0----------------------|
B|-1----------1---------1-----------1----3-1h3----------|
G|----------------------------------2-------------------|
D|------------------------------------------------------|
A|-----------------------0---------0--------------------|
E|-1--------3--------------------------3----------------|
 
e|-0h3-3-0—0h3-3-0—0h3-3-0-------------------------------|
B|-1----------1---------1-----------1--------------------|
G|----------------------------------2--------------------|
D|-------------------------------------------------------|
A|-----------------------0---------0---------------------|
E|-1--------3--------------------------3-----------------|
 
e|--------------------------------------------0--------------|
B|-----0-1-0-1-0-1-0-1-0-0-0-0-0-0-1-0---1----3--------------|
G|-2-2-------------------------------------2-----/4--4-------|
D|-----------------------------------------------------------| X2
A|-----------------------------------------0-----0-----------|
E|-------1----------------3----------------------------------|
 
e|----------------------------------------------------------------|
B|-----1-1h3-3-1-3-3-1-3-1---1-1h3-3-1-3-3-1--1h3-3-1-------------|
G|-2-2-----------------------2-2----------------------------------|
D|----------------------------------------------------------------|
A|----------------------------------0----------------0------------|
E|-------1----------------3---------------------------------------|
 
e|--------------------------------------------0--------------|
B|-----0-1-0-1-0-1-0-1-0-0-0-0-0-0-1-0---1----3--------------|
G|-2-2-------------------------------------2-----/4--4-------|
D|-----------------------------------------------------------|
A|-----------------------------------------0-----0-----------|
E|-------1----------------3----------------------------------|
 
[Outro]
 
e|-----------------------------------------|
B|------------------5-------3--------------|
G|---------------/5--5---/4-4--------------|
D|---2-----2-------------------------------| X2
A|--0-0--0--0-0-------0--------------------|
E|-1----3----------------------------------|
            

Thank you very much for your interest in our article. We hope this information is of great value to you.

READ  Hinder - Freakshow Tabs | Ver. 1 | The site that provides the most complete music chords

You may also like

Leave a Comment