Chainsmokers – Call You Mine Tabs | Ver. 1 | The site that provides the most complete music chords

Are you looking for a topic Chainsmokers – Call You Mine Tabs | Ver. 1
right? If so, then you can watch it right here.

Chainsmokers – Call You Mine Tabs | Ver. 1
| You can find many other song chords here

Australia.xemloibaihat.com | Chainsmokers – Call You Mine Tabs | Ver. 1


[Intro]
 
e|---------------------------3/7-5-----------------------------3/7-5--------------|
B|-8---8---8-8h10-8-3---3---------8---8---8-8/10-8-3-3---3----------------------|
G|-9---9---9---------0---0---------------------------2-----2----------------------|
D|---------------------------------5---5---5---------0---0-0-0--------------------|
A|--------------------------------------------------------------------------------|
E|-8-8---8-----------3-3---3-------0-0---0----------------------------------------|
 
[Verse 1]
 
e|--------------------------------------------------------------------------------|
B|---3-3-0-0-0-3/5-3p0---------------------3-3-0-0-0-3/5-3p0----------------------|
G|---0-----------------2-2-2h4p2-0-0-------0-----------------2-2-2/42-0-0--------|
D|---2-------------------------------------0-----------------0--------------------|
A|-3-----3-----------------------------------------------------------------103-3-|
E|---------------------3---------3---3-2-0-----0----------------------------------|
 
e|-0h3-0------------------------------------------------------------------x-------|
B|-------3-3/5-3-0-------------------------3-3-0-0-0-3/5-3p0--------------x---8-8-|
G|-----------------2-0h2-0-0-2/4-2/4-------0------------------------------7/9-----|
D|-----------------------------------------0-----------------4/7-7-7-5-5-x-------|
A|-------3---------------------------------------------------2/5----------x-------|
E|-------------------3---------------3-2-0-----0--------------------------x-----8-|
 
e|----------x-------x-3-x-5-3-x-------x-3-x--------x-----------x------------------|
B|---8/10-8-x-3-3-3-3---x-----3-3-3-3-3---x-3/10-8-x-10/12-----x-10---------------|
G|----------7-0-----x---x-----x-0-----x---x--------9-----------x------------------|
D|----------x-------x---x-----x-2-----x---x-0------x-------0-0-x-0---0------------|
A|----------x-------x---x-----x-------x---x--------x-----------x------------------|
E|-8--------x-3-----x-3-x-----x-0-----x-0-x--------x-----------x------------------|
 
[Chorus]
 
e|-x-3-3---0---3-3-0---3-5-5/7-7-3-0---3/12---------------------------------3-3---|
B|-3---------3-------3----------------------12-12-12-12-12-12-12-12-10-10-3-------|
G|-x------------------------------------------------------------------------------|
D|-x----------------------------------------------------------0--------0----------|
A|-x---3-3--------------------------------------------------------------------3-3-|
E|-x-------------------3-------------0---------0----------------------------------|
 
e|-0---3-3-0---3-5-5/7-5-------7/15-14-12-12h14p15----12--------------------------|
B|---3-------3-------------------------------------15----15-12-12h13p12-----------|
G|----------------------------------------------------------------------14-14/16--|
D|-------------------------VV∧---------------------------------------------0------|
A|--------------------------------------------------------------------------------|
E|-------------3---------3-----0--------------------------------------------------|
 
e|------------3-3/7---------------------------------------------------------------|
B|--------3-3-x-------------------------------------------------------------------|
G|------------x-------------------------------------------------------------------|
D|-17-17/-----x-------------------------------------------------------------------|
A|------------x-------------------------------------------------------------------|
E|------------x-------------------------------------------------------------------|
 
[Post Chorus]
o o o o o o o
e|-0---x----x-7-[12]-0-0-0-0-3-2/7-7-2-2h3-0---x----x-7-------0-0-0-0-3-2/7-----x-|
B|-----8-10-x---[12]-0-----x---3/8-8-3-3-------8-10-x---------0-----x---3/8-----8-|
G|-----x----x---[12]-0-----x---------x---------x----x---------0-----x-------9-9-x-|
D|-----x----x---[12]-------x---0-----x---------x----x-----VV∧-------x---0-------x-|
A|-----x----x---[12]-------x---------x---------x----x---------------x-----------x-|
E|-8-8-x-9--x---[12]-3-----x---------x-----8-8-x-8--x---------3-----x-----------x-|
 
e|-7------|
B|--------|
G|--------| x2
D|--------|
A|--------|
E|--------|
o o o o o o
e|-0---x----x-7-------0-0-0-0-3-2/7-7-2-2h3-7/15-14-12-12h14p12----12-------------|
B|-----8-10-x---------0-----x---3/8-8-3-3--------------x--------15----15-12-------|
G|-----x----x---------0-----x---------x----------------x--------------------------|
D|-----x----x-----VV∧-------x---0-----x----------------x-----------0--------------|
A|-----x----x---------------x---------x----------------x--------------------------|
E|-8-8-x-8--x---------3-----x---------x-----0----------x--------------------------|
 
e|-x-------------------x------x---------------------------------------------------|
B|-12h13p12------------x------x---------------------------------------------------|
G|-x--------14-14/16---x------x---------------------------------------------------|
D|-x-----------0-----0-17-17/-x---------------------------------------------------|
A|-x-------------------x------x---------------------------------------------------|
E|-x-------------------x------x---------------------------------------------------|
 
[Verse 2]
o o o
e|-----x-----------x-----------x-------------x-----------x-----------x------------|
B|---3-3-0-0-0-3/5-3p0---------x-----------3-3-0-0-0-3/5-3p0---------x------------|
G|---0-x-----------x---2-2-2h4p2-0-0-------0-x-----------x---2-2-2/42-0-0--------|
D|---2-x-----------x-----------x-----------0-x-----------x---0-------x------------|
A|-3---x-3---------x-----------x-------------x-----------x-----------x-----10/3-3-|
E|-----x-----------x---3-------x-----3-2-0---x-0---------x-----------x------------|
o o
e|-0h3-0---------x---------x---x-----------x-----------x---------x---x----x-------|
B|-----x-3-3/5-3-0---------x---x---------3-3-0-0-0-3/5-3p0-------x---x----x-------|
G|-----x---------x-2-0h2-0-0-4-x-4-------0-x-----------x---------x---x----x-------|
D|-----x---------x---------x---x---------0-x-----------x---4/7-7-7-5-x-5/-x-------|
A|-----x-3-------x---------x---x-----------x-----------x---2/5---x---x----x-------|
E|-----x---------x---3-----x---x-3-3-2-0---x-0---------x---------x---x----x-------|
 
[Chorus]
 
e|-x-3-3---0---3-3-0---3-5-5/7-7-3-0---3/12---------------------------------3-3---|
B|-3---------3-------3----------------------12-12-12-12-12-12-12-12-10-10-3-------|
G|-x------------------------------------------------------------------------------|
D|-x----------------------------------------------------------0--------0----------|
A|-x---3-3--------------------------------------------------------------------3-3-|
E|-x-------------------3-------------0---------0----------------------------------|
 
e|-0---3-3-0---3-5-5/7-5-------7/15-14-12-12h14p15----12--------------------------|
B|---3-------3-------------------------------------15----15-12-12h13p12-----------|
G|----------------------------------------------------------------------14-14/16--|
D|-------------------------VV∧---------------------------------------------0------|
A|--------------------------------------------------------------------------------|
E|-------------3---------3-----0--------------------------------------------------|
 
e|------------3-3/7---------------------------------------------------------------|
B|--------3-3-x-------------------------------------------------------------------|
G|------------x-------------------------------------------------------------------|
D|-17-17/-----x-------------------------------------------------------------------|
A|------------x-------------------------------------------------------------------|
E|------------x-------------------------------------------------------------------|
 
[Post Chorus]
o o o o o o o
e|-0---x----x-7-[12]-0-0-0-0-3-2/7-7-2-2h3-0---x----x-7-------0-0-0-0-3-2/7-----x-|
B|-----8-10-x---[12]-0-----x---3/8-8-3-3-------8-10-x---------0-----x---3/8-----8-|
G|-----x----x---[12]-0-----x---------x---------x----x---------0-----x-------9-9-x-|
D|-----x----x---[12]-------x---0-----x---------x----x-----VV∧-------x---0-------x-|
A|-----x----x---[12]-------x---------x---------x----x---------------x-----------x-|
E|-8-8-x-9--x---[12]-3-----x---------x-----8-8-x-8--x---------3-----x-----------x-|
 
e|-7------|
B|--------|
G|--------| x2
D|--------|
A|--------|
E|--------|
o o o o o o
e|-0---x----x-7-------0-0-0-0-3-2/7-7-2-2h3-7/15-14-12-12h14p12----12-------------|
B|-----8-10-x---------0-----x---3/8-8-3-3--------------x--------15----15-12-------|
G|-----x----x---------0-----x---------x----------------x--------------------------|
D|-----x----x-----VV∧-------x---0-----x----------------x-----------0--------------|
A|-----x----x---------------x---------x----------------x--------------------------|
E|-8-8-x-8--x---------3-----x---------x-----0----------x--------------------------|
 
e|-x-------------------x------x---------------------------------------------------|
B|-12h13p12------------x------x---------------------------------------------------|
G|-x--------14-14/16---x------x---------------------------------------------------|
D|-x-----------0-----0-17-17/-x---------------------------------------------------|
A|-x-------------------x------x---------------------------------------------------|
E|-x-------------------x------x---------------------------------------------------|
 
[Bridge]
e|-x---------7------------------3-3/5-3-----------3-3/5-3---3/7---5-----------7---|
B|-3/5-8-8-----8/10-8-3-3-3-3-3---------3-3-3-3-3---------3---------3/5-8-8-------|
G|-x--------------------0-----------------0---------------------------------------|
D|-x--------------------------------------2---------------------0-----------------|
A|-x--------------------3---------------------------------------------------------|
E|-x-----8-8------------------------------0-------------------------------8-8-----|
 
e|------------------3-3/5-3-----------3-3/5-3---3/7---5--2-----------------------|
B|-8/10-8-3-3-3-3-3---------3-3-3-3-3---------3----------0-----------------------|
G|----------0-----------------0--------------------------0-----------------------|
D|----------------------------2---------------------0----0-----------------------|
A|----------3--------------------------------------------2-----------------------|
E|----------------------------0--------------------------3-----------------------|
            

You can find more useful information here: See here

Chainsmokers – Call You Mine Tabs | Ver. 1
And searches related to this topic

#Chainsmokers #Call #Tabs #Ver

Chainsmokers – Call You Mine Tabs | Ver. 1

>>See more useful information provided by us here: View here.

Review the information related to the topic Chainsmokers – Call You Mine Tabs | Ver. 1
again

Australia.xemloibaihat.com | Chainsmokers – Call You Mine Tabs | Ver. 1


[Intro]
 
e|---------------------------3/7-5-----------------------------3/7-5--------------|
B|-8---8---8-8h10-8-3---3---------8---8---8-8/10-8-3-3---3----------------------|
G|-9---9---9---------0---0---------------------------2-----2----------------------|
D|---------------------------------5---5---5---------0---0-0-0--------------------|
A|--------------------------------------------------------------------------------|
E|-8-8---8-----------3-3---3-------0-0---0----------------------------------------|
 
[Verse 1]
 
e|--------------------------------------------------------------------------------|
B|---3-3-0-0-0-3/5-3p0---------------------3-3-0-0-0-3/5-3p0----------------------|
G|---0-----------------2-2-2h4p2-0-0-------0-----------------2-2-2/42-0-0--------|
D|---2-------------------------------------0-----------------0--------------------|
A|-3-----3-----------------------------------------------------------------103-3-|
E|---------------------3---------3---3-2-0-----0----------------------------------|
 
e|-0h3-0------------------------------------------------------------------x-------|
B|-------3-3/5-3-0-------------------------3-3-0-0-0-3/5-3p0--------------x---8-8-|
G|-----------------2-0h2-0-0-2/4-2/4-------0------------------------------7/9-----|
D|-----------------------------------------0-----------------4/7-7-7-5-5-x-------|
A|-------3---------------------------------------------------2/5----------x-------|
E|-------------------3---------------3-2-0-----0--------------------------x-----8-|
 
e|----------x-------x-3-x-5-3-x-------x-3-x--------x-----------x------------------|
B|---8/10-8-x-3-3-3-3---x-----3-3-3-3-3---x-3/10-8-x-10/12-----x-10---------------|
G|----------7-0-----x---x-----x-0-----x---x--------9-----------x------------------|
D|----------x-------x---x-----x-2-----x---x-0------x-------0-0-x-0---0------------|
A|----------x-------x---x-----x-------x---x--------x-----------x------------------|
E|-8--------x-3-----x-3-x-----x-0-----x-0-x--------x-----------x------------------|
 
[Chorus]
 
e|-x-3-3---0---3-3-0---3-5-5/7-7-3-0---3/12---------------------------------3-3---|
B|-3---------3-------3----------------------12-12-12-12-12-12-12-12-10-10-3-------|
G|-x------------------------------------------------------------------------------|
D|-x----------------------------------------------------------0--------0----------|
A|-x---3-3--------------------------------------------------------------------3-3-|
E|-x-------------------3-------------0---------0----------------------------------|
 
e|-0---3-3-0---3-5-5/7-5-------7/15-14-12-12h14p15----12--------------------------|
B|---3-------3-------------------------------------15----15-12-12h13p12-----------|
G|----------------------------------------------------------------------14-14/16--|
D|-------------------------VV∧---------------------------------------------0------|
A|--------------------------------------------------------------------------------|
E|-------------3---------3-----0--------------------------------------------------|
 
e|------------3-3/7---------------------------------------------------------------|
B|--------3-3-x-------------------------------------------------------------------|
G|------------x-------------------------------------------------------------------|
D|-17-17/-----x-------------------------------------------------------------------|
A|------------x-------------------------------------------------------------------|
E|------------x-------------------------------------------------------------------|
 
[Post Chorus]
o o o o o o o
e|-0---x----x-7-[12]-0-0-0-0-3-2/7-7-2-2h3-0---x----x-7-------0-0-0-0-3-2/7-----x-|
B|-----8-10-x---[12]-0-----x---3/8-8-3-3-------8-10-x---------0-----x---3/8-----8-|
G|-----x----x---[12]-0-----x---------x---------x----x---------0-----x-------9-9-x-|
D|-----x----x---[12]-------x---0-----x---------x----x-----VV∧-------x---0-------x-|
A|-----x----x---[12]-------x---------x---------x----x---------------x-----------x-|
E|-8-8-x-9--x---[12]-3-----x---------x-----8-8-x-8--x---------3-----x-----------x-|
 
e|-7------|
B|--------|
G|--------| x2
D|--------|
A|--------|
E|--------|
o o o o o o
e|-0---x----x-7-------0-0-0-0-3-2/7-7-2-2h3-7/15-14-12-12h14p12----12-------------|
B|-----8-10-x---------0-----x---3/8-8-3-3--------------x--------15----15-12-------|
G|-----x----x---------0-----x---------x----------------x--------------------------|
D|-----x----x-----VV∧-------x---0-----x----------------x-----------0--------------|
A|-----x----x---------------x---------x----------------x--------------------------|
E|-8-8-x-8--x---------3-----x---------x-----0----------x--------------------------|
 
e|-x-------------------x------x---------------------------------------------------|
B|-12h13p12------------x------x---------------------------------------------------|
G|-x--------14-14/16---x------x---------------------------------------------------|
D|-x-----------0-----0-17-17/-x---------------------------------------------------|
A|-x-------------------x------x---------------------------------------------------|
E|-x-------------------x------x---------------------------------------------------|
 
[Verse 2]
o o o
e|-----x-----------x-----------x-------------x-----------x-----------x------------|
B|---3-3-0-0-0-3/5-3p0---------x-----------3-3-0-0-0-3/5-3p0---------x------------|
G|---0-x-----------x---2-2-2h4p2-0-0-------0-x-----------x---2-2-2/42-0-0--------|
D|---2-x-----------x-----------x-----------0-x-----------x---0-------x------------|
A|-3---x-3---------x-----------x-------------x-----------x-----------x-----10/3-3-|
E|-----x-----------x---3-------x-----3-2-0---x-0---------x-----------x------------|
o o
e|-0h3-0---------x---------x---x-----------x-----------x---------x---x----x-------|
B|-----x-3-3/5-3-0---------x---x---------3-3-0-0-0-3/5-3p0-------x---x----x-------|
G|-----x---------x-2-0h2-0-0-4-x-4-------0-x-----------x---------x---x----x-------|
D|-----x---------x---------x---x---------0-x-----------x---4/7-7-7-5-x-5/-x-------|
A|-----x-3-------x---------x---x-----------x-----------x---2/5---x---x----x-------|
E|-----x---------x---3-----x---x-3-3-2-0---x-0---------x---------x---x----x-------|
 
[Chorus]
 
e|-x-3-3---0---3-3-0---3-5-5/7-7-3-0---3/12---------------------------------3-3---|
B|-3---------3-------3----------------------12-12-12-12-12-12-12-12-10-10-3-------|
G|-x------------------------------------------------------------------------------|
D|-x----------------------------------------------------------0--------0----------|
A|-x---3-3--------------------------------------------------------------------3-3-|
E|-x-------------------3-------------0---------0----------------------------------|
 
e|-0---3-3-0---3-5-5/7-5-------7/15-14-12-12h14p15----12--------------------------|
B|---3-------3-------------------------------------15----15-12-12h13p12-----------|
G|----------------------------------------------------------------------14-14/16--|
D|-------------------------VV∧---------------------------------------------0------|
A|--------------------------------------------------------------------------------|
E|-------------3---------3-----0--------------------------------------------------|
 
e|------------3-3/7---------------------------------------------------------------|
B|--------3-3-x-------------------------------------------------------------------|
G|------------x-------------------------------------------------------------------|
D|-17-17/-----x-------------------------------------------------------------------|
A|------------x-------------------------------------------------------------------|
E|------------x-------------------------------------------------------------------|
 
[Post Chorus]
o o o o o o o
e|-0---x----x-7-[12]-0-0-0-0-3-2/7-7-2-2h3-0---x----x-7-------0-0-0-0-3-2/7-----x-|
B|-----8-10-x---[12]-0-----x---3/8-8-3-3-------8-10-x---------0-----x---3/8-----8-|
G|-----x----x---[12]-0-----x---------x---------x----x---------0-----x-------9-9-x-|
D|-----x----x---[12]-------x---0-----x---------x----x-----VV∧-------x---0-------x-|
A|-----x----x---[12]-------x---------x---------x----x---------------x-----------x-|
E|-8-8-x-9--x---[12]-3-----x---------x-----8-8-x-8--x---------3-----x-----------x-|
 
e|-7------|
B|--------|
G|--------| x2
D|--------|
A|--------|
E|--------|
o o o o o o
e|-0---x----x-7-------0-0-0-0-3-2/7-7-2-2h3-7/15-14-12-12h14p12----12-------------|
B|-----8-10-x---------0-----x---3/8-8-3-3--------------x--------15----15-12-------|
G|-----x----x---------0-----x---------x----------------x--------------------------|
D|-----x----x-----VV∧-------x---0-----x----------------x-----------0--------------|
A|-----x----x---------------x---------x----------------x--------------------------|
E|-8-8-x-8--x---------3-----x---------x-----0----------x--------------------------|
 
e|-x-------------------x------x---------------------------------------------------|
B|-12h13p12------------x------x---------------------------------------------------|
G|-x--------14-14/16---x------x---------------------------------------------------|
D|-x-----------0-----0-17-17/-x---------------------------------------------------|
A|-x-------------------x------x---------------------------------------------------|
E|-x-------------------x------x---------------------------------------------------|
 
[Bridge]
e|-x---------7------------------3-3/5-3-----------3-3/5-3---3/7---5-----------7---|
B|-3/5-8-8-----8/10-8-3-3-3-3-3---------3-3-3-3-3---------3---------3/5-8-8-------|
G|-x--------------------0-----------------0---------------------------------------|
D|-x--------------------------------------2---------------------0-----------------|
A|-x--------------------3---------------------------------------------------------|
E|-x-----8-8------------------------------0-------------------------------8-8-----|
 
e|------------------3-3/5-3-----------3-3/5-3---3/7---5--2-----------------------|
B|-8/10-8-3-3-3-3-3---------3-3-3-3-3---------3----------0-----------------------|
G|----------0-----------------0--------------------------0-----------------------|
D|----------------------------2---------------------0----0-----------------------|
A|----------3--------------------------------------------2-----------------------|
E|----------------------------0--------------------------3-----------------------|
            

Thank you very much for your interest in our article. We hope this information is of great value to you.

Leave a Reply

Your email address will not be published. Required fields are marked *