Chainsmokers – Dont Let Me Down Bass | Ver. 1 | The site that provides the most complete music chords

Are you looking for a topic Chainsmokers – Dont Let Me Down Bass | Ver. 1
right? If so, then you can watch it right here.

Chainsmokers – Dont Let Me Down Bass | Ver. 1
| You can find many other song chords here

Australia.xemloibaihat.com | Chainsmokers – Dont Let Me Down Bass | Ver. 1


[Intro]
 
G|--------11-11-11--------------------|
D|--9-9-7----------11-11-11s12-12-11--|
A|------------------------------------|
E|------------------------------------|
 
 
G|--------11-11-11--------------------|
D|--9-9-7----------11-11-11s12-12-11--|
A|------------------------------------|
E|------------------------------------|
 
 
[Verse 1]
 
G|--------------------------------------------|
D|--------------------------------------------|
A|--------6-6-6----------------6-6-6----------|
E|--4-4-2-------6-6-6s7--4-4-2-------6-6-6s7--|
 
G|--------------------------------------------|
D|--------------------------------------------|
A|--------6-6-6----------------6-6-6----------|
E|--4-4-2-------6-6-6s7--4-4-2-------6-6-6s7--|
            

You can find more useful information here: Australia.xemloibaihat.com/chord

Chainsmokers – Dont Let Me Down Bass | Ver. 1
And searches related to this topic

#Chainsmokers #Dont #Bass #Ver

Chainsmokers – Dont Let Me Down Bass | Ver. 1

>>See more useful information provided by us here: https://australia.xemloibaihat.com/.

Review the information related to the topic Chainsmokers – Dont Let Me Down Bass | Ver. 1
again

Australia.xemloibaihat.com | Chainsmokers – Dont Let Me Down Bass | Ver. 1


[Intro]
 
G|--------11-11-11--------------------|
D|--9-9-7----------11-11-11s12-12-11--|
A|------------------------------------|
E|------------------------------------|
 
 
G|--------11-11-11--------------------|
D|--9-9-7----------11-11-11s12-12-11--|
A|------------------------------------|
E|------------------------------------|
 
 
[Verse 1]
 
G|--------------------------------------------|
D|--------------------------------------------|
A|--------6-6-6----------------6-6-6----------|
E|--4-4-2-------6-6-6s7--4-4-2-------6-6-6s7--|
 
G|--------------------------------------------|
D|--------------------------------------------|
A|--------6-6-6----------------6-6-6----------|
E|--4-4-2-------6-6-6s7--4-4-2-------6-6-6s7--|
            

Thank you very much for your interest in our article. We hope this information is of great value to you.

Leave a Reply

Your email address will not be published. Required fields are marked *