Chainsmokers – Something Just Like This Tabs | Ver. 1 | The site that provides the most complete music chords

Are you looking for a topic Chainsmokers – Something Just Like This Tabs | Ver. 1
right? If so, then you can watch it right here.

Chainsmokers – Something Just Like This Tabs | Ver. 1
| You can find many other song chords here

Australia.xemloibaihat.com | Chainsmokers – Something Just Like This Tabs | Ver. 1


[Verse 1]
 
 
Guitar 1
    Cadd9  D    Em   D
e|--------------------------------|
B|----3----3----0----3------------|
G|----0----2----0----2------------|
D|----2----0----2----0------------|
A|----3----0----2----0------------|
E|--------------------------------|
 
Guitar 2
e|-----|-----------------------------|
B|-----|-----3------3-----3-----3----|
G|--0--|---0---0--0---0-0---0-0---0--|
D|-----|-----------------------------|
A|-----|-----------------------------|
E|-----|-----------------------------|
 
I've been reading books of old
The legends and the myths
Achilles and his gold
Hercules and his gifts
Spiderman's control
And Batman with his fists
And clearly I don't see myself upon that list
She said "Where'd you wanna go?
How much you wanna risk?
I'm not looking for somebody
With some superhuman gifts
Some superhero
Some fairytale bliss
Just something I can turn to
Somebody I can kiss"
 
 
[Chorus]
 
e|--------------------------------|
B|----3----3----0----3------------|
G|----0----2----0----2------------|
D|----2----0----2----0------------|
A|----3----0----2----0------------|
E|--------------------------------|
                         Cadd9
"I want something just like this
              D
Doo-doo-doo, doo-doo-doo
          Em
Doo-doo-doo, doo-doo
               D
Doo-doo-doo, doo-doo-doo
                         Cadd9
"I want something just like this
              D
Doo-doo-doo, doo-doo-doo
          Em
Doo-doo-doo, doo-doo
               D
Doo-doo-doo, doo-doo-doo
 
 
[Hook]
 
e|------------------3-----------------------|
B|---3---3-3--3---3-3--0---0-0-0-3-3-3------|
G|---0---0-0--2---2-2--0---0-0-0-0-0-0------|
D|---2---2-2--0---0-0--2---2-2-2-0-0-0------|
A|---3---3-3--0---0----2---2-2-2-2-2-2------|
E|------------------------------------------| 
 
"Oh I want something just like this
I want something just like this"
 
 
[Verse 2]
 
Guitar 1
    Cadd9  D    Em   D
e|--------------------------------|
B|----3----3----0----3------------|
G|----0----2----0----2------------|
D|----2----0----2----0------------|
A|----3----0----2----0------------|
E|--------------------------------|
 
 
Guitar 2
e|-----|-----------------------------|
B|-----|-----3------3-----3-----3----|
G|--0--|---0---0--0---0-0---0-0---0--|
D|-----|-----------------------------|
A|-----|-----------------------------|
E|-----|-----------------------------|
 
I've been reading books of old
The legends and the myths
The testaments they told
The moon and its eclipse
And Superman unrolls
A suit before he lifts
But I'm not the kind of person that it fits
She said "Where'd you wanna go?
How much you wanna risk?
I'm not looking for somebody
With some superhuman gifts
Some superhero
Some fairytale bliss
Just something I can turn to
Somebody I can miss"
 
 
[Chorus]
 
e|--------------------------------|
B|----3----3----0----3------------|
G|----0----2----0----2------------|
D|----2----0----2----0------------|
A|----3----0----2----0------------|
E|--------------------------------|
 
                         Cadd9
"I want something just like this
              D
Doo-doo-doo, doo-doo-doo
          Em
Doo-doo-doo, doo-doo
               D
Doo-doo-doo, doo-doo-doo
                         Cadd9
"I want something just like this
              D
Doo-doo-doo, doo-doo-doo
          Em
Doo-doo-doo, doo-doo
               D
Doo-doo-doo, doo-doo-doo
 
[Verse 3]
 
Guitar 1
    Cadd9  D    Em   D
e|--------------------------------|
B|----3----3----0----3------------|
G|----0----2----0----2------------|
D|----2----0----2----0------------|
A|----3----0----2----0------------|
E|--------------------------------|
 
Guitar 2
e|-----|-----------------------------|
B|-----|-----3------3-----3-----3----|
G|--0--|---0---0--0---0-0---0-0---0--|
D|-----|-----------------------------|
A|-----|-----------------------------|
E|-----|-----------------------------|
 
"Where d'ya wanna go?
How much you wanna risk?
I'm not looking for somebody
With some superhuman gifts
Some superhero
Some fairytale bliss
Just something I can turn to
Somebody I can kiss
I want something just like this
 
 
[Hook]
 
Guitar 1
 
e|------------------3-----------------------|
B|---3---3-3--3---3-3--0---0-0-0-3-3-3------|
G|---0---0-0--2---2-2--0---0-0-0-0-0-0------|
D|---2---2-2--0---0-0--2---2-2-2-0-0-0------|
A|---3---3-3--0---0----2---2-2-2-2-2-2------|
E|------------------------------------------| 
 
Guitar 2
 
e|--------------------------5s7---------|
B|---5--5-7-7---7-8-8---7-8-------7-8---|
G|--------------------------------------|
D|--------------------------------------|
A|--------------------------------------|
E|--------------------------------------|
"Oh I want something just like this
Oh I want something just like this
Oh I want something just like this
Oh I want something just like this"
            

You can find more useful information here: Australia.xemloibaihat.com/chord

Chainsmokers – Something Just Like This Tabs | Ver. 1
And searches related to this topic

#Chainsmokers #Tabs #Ver

Chainsmokers – Something Just Like This Tabs | Ver. 1

>>See more useful information provided by us here: More info here.

Review the information related to the topic Chainsmokers – Something Just Like This Tabs | Ver. 1
again

Australia.xemloibaihat.com | Chainsmokers – Something Just Like This Tabs | Ver. 1


[Verse 1]
 
 
Guitar 1
    Cadd9  D    Em   D
e|--------------------------------|
B|----3----3----0----3------------|
G|----0----2----0----2------------|
D|----2----0----2----0------------|
A|----3----0----2----0------------|
E|--------------------------------|
 
Guitar 2
e|-----|-----------------------------|
B|-----|-----3------3-----3-----3----|
G|--0--|---0---0--0---0-0---0-0---0--|
D|-----|-----------------------------|
A|-----|-----------------------------|
E|-----|-----------------------------|
 
I've been reading books of old
The legends and the myths
Achilles and his gold
Hercules and his gifts
Spiderman's control
And Batman with his fists
And clearly I don't see myself upon that list
She said "Where'd you wanna go?
How much you wanna risk?
I'm not looking for somebody
With some superhuman gifts
Some superhero
Some fairytale bliss
Just something I can turn to
Somebody I can kiss"
 
 
[Chorus]
 
e|--------------------------------|
B|----3----3----0----3------------|
G|----0----2----0----2------------|
D|----2----0----2----0------------|
A|----3----0----2----0------------|
E|--------------------------------|
                         Cadd9
"I want something just like this
              D
Doo-doo-doo, doo-doo-doo
          Em
Doo-doo-doo, doo-doo
               D
Doo-doo-doo, doo-doo-doo
                         Cadd9
"I want something just like this
              D
Doo-doo-doo, doo-doo-doo
          Em
Doo-doo-doo, doo-doo
               D
Doo-doo-doo, doo-doo-doo
 
 
[Hook]
 
e|------------------3-----------------------|
B|---3---3-3--3---3-3--0---0-0-0-3-3-3------|
G|---0---0-0--2---2-2--0---0-0-0-0-0-0------|
D|---2---2-2--0---0-0--2---2-2-2-0-0-0------|
A|---3---3-3--0---0----2---2-2-2-2-2-2------|
E|------------------------------------------| 
 
"Oh I want something just like this
I want something just like this"
 
 
[Verse 2]
 
Guitar 1
    Cadd9  D    Em   D
e|--------------------------------|
B|----3----3----0----3------------|
G|----0----2----0----2------------|
D|----2----0----2----0------------|
A|----3----0----2----0------------|
E|--------------------------------|
 
 
Guitar 2
e|-----|-----------------------------|
B|-----|-----3------3-----3-----3----|
G|--0--|---0---0--0---0-0---0-0---0--|
D|-----|-----------------------------|
A|-----|-----------------------------|
E|-----|-----------------------------|
 
I've been reading books of old
The legends and the myths
The testaments they told
The moon and its eclipse
And Superman unrolls
A suit before he lifts
But I'm not the kind of person that it fits
She said "Where'd you wanna go?
How much you wanna risk?
I'm not looking for somebody
With some superhuman gifts
Some superhero
Some fairytale bliss
Just something I can turn to
Somebody I can miss"
 
 
[Chorus]
 
e|--------------------------------|
B|----3----3----0----3------------|
G|----0----2----0----2------------|
D|----2----0----2----0------------|
A|----3----0----2----0------------|
E|--------------------------------|
 
                         Cadd9
"I want something just like this
              D
Doo-doo-doo, doo-doo-doo
          Em
Doo-doo-doo, doo-doo
               D
Doo-doo-doo, doo-doo-doo
                         Cadd9
"I want something just like this
              D
Doo-doo-doo, doo-doo-doo
          Em
Doo-doo-doo, doo-doo
               D
Doo-doo-doo, doo-doo-doo
 
[Verse 3]
 
Guitar 1
    Cadd9  D    Em   D
e|--------------------------------|
B|----3----3----0----3------------|
G|----0----2----0----2------------|
D|----2----0----2----0------------|
A|----3----0----2----0------------|
E|--------------------------------|
 
Guitar 2
e|-----|-----------------------------|
B|-----|-----3------3-----3-----3----|
G|--0--|---0---0--0---0-0---0-0---0--|
D|-----|-----------------------------|
A|-----|-----------------------------|
E|-----|-----------------------------|
 
"Where d'ya wanna go?
How much you wanna risk?
I'm not looking for somebody
With some superhuman gifts
Some superhero
Some fairytale bliss
Just something I can turn to
Somebody I can kiss
I want something just like this
 
 
[Hook]
 
Guitar 1
 
e|------------------3-----------------------|
B|---3---3-3--3---3-3--0---0-0-0-3-3-3------|
G|---0---0-0--2---2-2--0---0-0-0-0-0-0------|
D|---2---2-2--0---0-0--2---2-2-2-0-0-0------|
A|---3---3-3--0---0----2---2-2-2-2-2-2------|
E|------------------------------------------| 
 
Guitar 2
 
e|--------------------------5s7---------|
B|---5--5-7-7---7-8-8---7-8-------7-8---|
G|--------------------------------------|
D|--------------------------------------|
A|--------------------------------------|
E|--------------------------------------|
"Oh I want something just like this
Oh I want something just like this
Oh I want something just like this
Oh I want something just like this"
            

Thank you very much for your interest in our article. We hope this information is of great value to you.

Leave a Reply

Your email address will not be published. Required fields are marked *