Home » CHARLIE PUTH – Mother Guitar Tabs | The site that provides the most complete music chords

CHARLIE PUTH – Mother Guitar Tabs | The site that provides the most complete music chords

Are you looking for a topic CHARLIE PUTH – Mother Guitar Tabs right? If so, then you can watch it right here.

CHARLIE PUTH – Mother Guitar Tabs | You can find many other song chords here

 
Original Key: Gb Major
Time Signature: 4/4
Tempo: 120
Suggested Strumming: DU,DU,DU,DU
c h o r d  z o n e . o r g
 [INTRO]

 
Legend
L - tied note
x - dead note
h - hammer on/pull off
b - bend
s - slide
~ - vibrato
g - ghost note
> - accentuated note
t - trill
M - palm mute
. - staccato
P - popping (bass)
S - slapping (bass)
+ - tapping
W - wide vibrato
< - fade in
w - whammy bar
= - tremolo picking
v - brush up
^ - brush down
V - pick stroke up
n - pick stroke down


E |-------|-----------6-----6-----6--6--------2L-2-------------|
B |-------|----------------------------------------------------|
G |-------|----------------------------------------------------|
D |-------|----------------------------------------------------|
A |-------|----------------------------------------------------|
E |-------|----------------------------------------------------|


--------7--------7--------7--------2L-2-------------|
----------------------------------------------------|
----------------------------------------------------|
----------------------------------------------------|
----------------------------------------------------|
----------------------------------------------------|


-----------6-----6-----6--6--------7--9--------14---|
----------------------------------------------------|
----------------------------------------------------|
----------------------------------------------------|
----------------------------------------------------|
----------------------------------------------------|


--12----------11-------9--7-----------6--------4L---|
----------------------------------------------------|
----------------------------------------------------|
----------------------------------------------------|
----------------------------------------------------|
----------------------------------------------------|


--4--------6-----6-----6--6-------------------------|
-----------------------------------7L-7-------------|
----------------------------------------------------|
----------------------------------------------------|
----------------------------------------------------|
----------------------------------------------------|


--------7--------7--------7-------------------------|
-----------------------------------7L-7-------------|
----------------------------------------------------|
----------------------------------------------------|
----------------------------------------------------|
----------------------------------------------------|


-----------6-----6-----6--6--------7--9--------14---|
----------------------------------------------------|
----------------------------------------------------|
----------------------------------------------------|
----------------------------------------------------|
----------------------------------------------------|


--12----------11-------9--7-----------9--------9L---|--9--12-9--7----|
----------------------------------------------------|----------------|
----------------------------------------------------|----------------|
----------------------------------------------------|----------------|
----------------------------------------------------|----------------|
----------------------------------------------------|----------------|


--9--12-9--7----|--9--12-9--7----|--9-----7-----7--7-----2----|
----------------|----------------|----------------------------|
----------------|----------------|----------------------------|
----------------|----------------|----------------------------|
----------------|----------------|----------------------------|
----------------|----------------|----------------------------|


-----------14----14-------14----9--------11---------|
----------------------------------------------------|
----------------------------------------------------|
----------------------------------------------------|
----------------------------------------------------|
----------------------------------------------------|


--12-------11-------9-----7--------6--------4-------|
----------------------------------------------------|
----------------------------------------------------|
----------------------------------------------------|
----------------------------------------------------|
----------------------------------------------------|


-----------14----14-------14-------16----18---------|
--7-------------------------------------------------|
----------------------------------------------------|
----------------------------------------------------|
----------------------------------------------------|
----------------------------------------------------|


--------14-------14-------14-------18-------19L-----|
----------------------------------------------------|
----------------------------------------------------|
----------------------------------------------------|
----------------------------------------------------|
----------------------------------------------------|


--19-------14----14-------14----9--------11---------|
----------------------------------------------------|
----------------------------------------------------|
----------------------------------------------------|
----------------------------------------------------|
----------------------------------------------------|


--12-------11-------9-----7--------6--------4-------|
----------------------------------------------------|
----------------------------------------------------|
----------------------------------------------------|
----------------------------------------------------|
----------------------------------------------------|


-----------14----14-------14-------16----18---------|
--7-------------------------------------------------|
----------------------------------------------------|
----------------------------------------------------|
----------------------------------------------------|
----------------------------------------------------|


--------14-------14-------14-------18-------19L-----|
----------------------------------------------------|
----------------------------------------------------|
----------------------------------------------------|
----------------------------------------------------|
----------------------------------------------------|


--19-------------6-----6--6--------2L-2-------------|
----------------------------------------------------|
-----------15---------------------------------------|
----------------------------------------------------|
----------------------------------------------------|
----------------------------------------------------|


--------7--------7--------7-------------------------|
-----------------------------------7L-7-------------|
----------------------------------------------------|
----------------------------------------------------|
----------------------------------------------------|
----------------------------------------------------|


-----------6-----6-----6--6--------7--9--------14---|
----------------------------------------------------|
----------------------------------------------------|
----------------------------------------------------|
----------------------------------------------------|
----------------------------------------------------|


--12----------11-------9--7-----------6--------4L---|
----------------------------------------------------|
----------------------------------------------------|
----------------------------------------------------|
----------------------------------------------------|
----------------------------------------------------|


--4--------6-----6-----6--6-------------------------|
-----------------------------------7L-7-------------|
----------------------------------------------------|
----------------------------------------------------|
----------------------------------------------------|
----------------------------------------------------|


--------7--------7--------7--------2L-2-------------|
----------------------------------------------------|
----------------------------------------------------|
----------------------------------------------------|
----------------------------------------------------|
----------------------------------------------------|


-----------6-----6-----6--6--------7--9--------14---|
----------------------------------------------------|
----------------------------------------------------|
----------------------------------------------------|
----------------------------------------------------|
----------------------------------------------------|


--12----------11-------9--7-----------9--------9L---|--9--12-9--7----|
----------------------------------------------------|----------------|
----------------------------------------------------|----------------|
----------------------------------------------------|----------------|
----------------------------------------------------|----------------|
----------------------------------------------------|----------------|


--9--12-9--7----|--9--12-9-------|
----------------|-----------12---|
----------------|----------------|
----------------|----------------|
----------------|----------------|
----------------|----------------|


--14-------14-------14----14-------14L14L-----------|
----------------------------------------------------|
----------------------------------------------------|
----------------------------------------------------|
----------------------------------------------------|
----------------------------------------------------|


--14-------14----14-------14----9--------11---------|
----------------------------------------------------|
----------------------------------------------------|
----------------------------------------------------|
----------------------------------------------------|
----------------------------------------------------|


--12-------11-------9-----7--------6--------4-------|
----------------------------------------------------|
----------------------------------------------------|
----------------------------------------------------|
----------------------------------------------------|
----------------------------------------------------|


-----------14----14-------14-------16----18---------|
--7-------------------------------------------------|
----------------------------------------------------|
----------------------------------------------------|
----------------------------------------------------|
----------------------------------------------------|


--------14-------14-------14-------18-------19L-----|
----------------------------------------------------|
----------------------------------------------------|
----------------------------------------------------|
----------------------------------------------------|
----------------------------------------------------|


--19-------14----14-------14----9--------11---------|
----------------------------------------------------|
----------------------------------------------------|
----------------------------------------------------|
----------------------------------------------------|
----------------------------------------------------|


--12-------11-------9-----7--------6--------4-------|
----------------------------------------------------|
----------------------------------------------------|
----------------------------------------------------|
----------------------------------------------------|
----------------------------------------------------|


-----------14----14-------14-------16----18---------|
--7-------------------------------------------------|
----------------------------------------------------|
----------------------------------------------------|
----------------------------------------------------|
----------------------------------------------------|


--------14-------14-------14-------18-------19------|
----------------------------------------------------|
----------------------------------------------------|
----------------------------------------------------|
----------------------------------------------------|
----------------------------------------------------|


--14-------14----9-----11-14-------14----9--11------|
----------------------------------------------------|
----------------------------------------------------|
----------------------------------------------------|
----------------------------------------------------|
----------------------------------------------------|


--12-------12----9-----11-11-------11----9-----11---|
----------------------------------------------------|
----------------------------------------------------|
----------------------------------------------------|
----------------------------------------------------|
----------------------------------------------------|


--14-------14----9--11----14----14-------9--11------|
----------------------------------------------------|
----------------------------------------------------|
----------------------------------------------------|
----------------------------------------------------|
----------------------------------------------------|


--12-------12----9-----11-11----11----12----14------|
----------------------------------------------------|
----------------------------------------------------|
----------------------------------------------------|
----------------------------------------------------|
----------------------------------------------------|


--14-------14-------9--11-14-------14----9-----11---|
----------------------------------------------------|
----------------------------------------------------|
----------------------------------------------------|
----------------------------------------------------|
----------------------------------------------------|


--12-------12-------9--11-11-------11-------9--11---|
----------------------------------------------------|
----------------------------------------------------|
----------------------------------------------------|
----------------------------------------------------|
----------------------------------------------------|


--14-------14-------9--11-14-------14-------9--11---|
----------------------------------------------------|
----------------------------------------------------|
----------------------------------------------------|
----------------------------------------------------|
----------------------------------------------------|


--12-------12-------9--11----11----11L11L-----------|--11------------|-------|
----------------------------------------------------|----------------|-------|
----------------------------------------------------|----------------|-------|
----------------------------------------------------|----------------|-------|
----------------------------------------------------|----------------|-------|
----------------------------------------------------|----------------|-------|


-----------6-----6-----6--6-------------------------|
-----------------------------------7L-7-------------|
----------------------------------------------------|
----------------------------------------------------|
----------------------------------------------------|
----------------------------------------------------|


--------7--------7--------7-------------------------|
-----------------------------------7L-7-------------|
----------------------------------------------------|
----------------------------------------------------|
----------------------------------------------------|
----------------------------------------------------|


-----------6-----6-----6--6--------7--9--------14---|
----------------------------------------------------|
----------------------------------------------------|
----------------------------------------------------|
----------------------------------------------------|
----------------------------------------------------|


--12----------11-------9--7-----------6--------4L---|
----------------------------------------------------|
----------------------------------------------------|
----------------------------------------------------|
----------------------------------------------------|
----------------------------------------------------|


Australia.xemloibaihat.com
 
--4--------6-----6-----6--6-------------------------|
-----------------------------------7L-7-------------|
----------------------------------------------------|
----------------------------------------------------|
----------------------------------------------------|
----------------------------------------------------|


--------7--------7--------7-------------------------|
-----------------------------------7L-7-------------|
----------------------------------------------------|
----------------------------------------------------|
----------------------------------------------------|
----------------------------------------------------|


-----------6-----6-----6--6--------7--9--------14---|
----------------------------------------------------|
----------------------------------------------------|
----------------------------------------------------|
----------------------------------------------------|
----------------------------------------------------|


--12----------11-------9--7-----------9--------9L---|--9--12-9--7----|
----------------------------------------------------|----------------|
----------------------------------------------------|----------------|
----------------------------------------------------|----------------|
----------------------------------------------------|----------------|
----------------------------------------------------|----------------|


--9--12-9--7----|--9--12-9--7----|--9-----7-----7--7-----2----|
----------------|----------------|----------------------------|
----------------|----------------|----------------------------|
----------------|----------------|----------------------------|
----------------|----------------|----------------------------|
----------------|----------------|----------------------------|


-----------14----14-------14----9--------11---------|
----------------------------------------------------|
----------------------------------------------------|
----------------------------------------------------|
----------------------------------------------------|
----------------------------------------------------|


--12-------11-------9-----7--------6--------4-------|
----------------------------------------------------|
----------------------------------------------------|
----------------------------------------------------|
----------------------------------------------------|
----------------------------------------------------|


-----------14----14-------14-------16----18---------|
--7-------------------------------------------------|
----------------------------------------------------|
----------------------------------------------------|
----------------------------------------------------|
----------------------------------------------------|


--------14-------14-------14-------18-------19L-----|
----------------------------------------------------|
----------------------------------------------------|
----------------------------------------------------|
----------------------------------------------------|
----------------------------------------------------|


--19-------14----14-------14----9--------11---------|
----------------------------------------------------|
----------------------------------------------------|
----------------------------------------------------|
----------------------------------------------------|
----------------------------------------------------|


--12-------11-------9-----7--------6--------4-------|
----------------------------------------------------|
----------------------------------------------------|
----------------------------------------------------|
----------------------------------------------------|
----------------------------------------------------|


-----------14----14-------14-------16----18---------|
--7-------------------------------------------------|
----------------------------------------------------|
----------------------------------------------------|
----------------------------------------------------|
----------------------------------------------------|


--------14-------14-------14-------18-------19L-----|
----------------------------------------------------|
----------------------------------------------------|
----------------------------------------------------|
----------------------------------------------------|
----------------------------------------------------|


--19-------------6-----6--6-------------------------|
-----------------------------------7L-7-------------|
-----------15---------------------------------------|
----------------------------------------------------|
----------------------------------------------------|
----------------------------------------------------|


--------7--------7--------7-------------------------|
-----------------------------------7L-7-------------|
----------------------------------------------------|
----------------------------------------------------|
----------------------------------------------------|
----------------------------------------------------|


-----------6-----6-----6--6--------7--9--------14---|
----------------------------------------------------|
----------------------------------------------------|
----------------------------------------------------|
----------------------------------------------------|
----------------------------------------------------|


--12----------11-------9--7-----------6--------4L---|
----------------------------------------------------|
----------------------------------------------------|
----------------------------------------------------|
----------------------------------------------------|
----------------------------------------------------|


--4--------6-----6-----6--6-------------------------|
-----------------------------------7L-7-------------|
----------------------------------------------------|
----------------------------------------------------|
----------------------------------------------------|
----------------------------------------------------|


--------7--------7--------7-------------------------|
-----------------------------------7L-7-------------|
----------------------------------------------------|
----------------------------------------------------|
----------------------------------------------------|
----------------------------------------------------|


-----------6-----6-----6--6--------7--9--------14---|
----------------------------------------------------|
----------------------------------------------------|
----------------------------------------------------|
----------------------------------------------------|
----------------------------------------------------|


--12----------11-------9--7-----------9--------9L---|--9--12-9--7----|
----------------------------------------------------|----------------|
----------------------------------------------------|----------------|
----------------------------------------------------|----------------|
----------------------------------------------------|----------------|
----------------------------------------------------|----------------|


--9--12-9--7----|--9--12-9-------|
----------------|-----------12---|
----------------|----------------|
----------------|----------------|
----------------|----------------|
----------------|----------------|


--14-------14-------14----14-------14L14L-----------|
----------------------------------------------------|
----------------------------------------------------|
----------------------------------------------------|
----------------------------------------------------|
----------------------------------------------------|


--14-------14----14-------14----9--------11---------|
----------------------------------------------------|
----------------------------------------------------|
----------------------------------------------------|
----------------------------------------------------|
----------------------------------------------------|


--12-------11-------9-----7--------6--------4-------|
----------------------------------------------------|
----------------------------------------------------|
----------------------------------------------------|
----------------------------------------------------|
----------------------------------------------------|


-----------14----14-------14-------16----18---------|
--7-------------------------------------------------|
----------------------------------------------------|
----------------------------------------------------|
----------------------------------------------------|
----------------------------------------------------|


--------14-------14-------14-------18-------19L-----|
----------------------------------------------------|
----------------------------------------------------|
----------------------------------------------------|
----------------------------------------------------|
----------------------------------------------------|


--19-------14----14-------14----9--------11---------|
----------------------------------------------------|
----------------------------------------------------|
----------------------------------------------------|
----------------------------------------------------|
----------------------------------------------------|


--12-------11-------9-----7--------6--------4-------|
----------------------------------------------------|
----------------------------------------------------|
----------------------------------------------------|
----------------------------------------------------|
----------------------------------------------------|


-----------14----14-------14-------16----18---------|
--7-------------------------------------------------|
----------------------------------------------------|
----------------------------------------------------|
----------------------------------------------------|
----------------------------------------------------|


--------14-------14-------14-------18-------19------|
----------------------------------------------------|
----------------------------------------------------|
----------------------------------------------------|
----------------------------------------------------|
----------------------------------------------------|


--14-------14----9-----11-14-------14----9--11------|
----------------------------------------------------|
----------------------------------------------------|
----------------------------------------------------|
----------------------------------------------------|
----------------------------------------------------|


--12-------12----9-----11-11-------11----9-----11---|
----------------------------------------------------|
----------------------------------------------------|
----------------------------------------------------|
----------------------------------------------------|
----------------------------------------------------|


--14-------14----9--11----14----14-------9--11------|
----------------------------------------------------|
----------------------------------------------------|
----------------------------------------------------|
----------------------------------------------------|
----------------------------------------------------|


--12-------12----9-----11-11----11----12----14------|
----------------------------------------------------|
----------------------------------------------------|
----------------------------------------------------|
----------------------------------------------------|
----------------------------------------------------|


--14-------14-------9--11-14-------14----9-----11---|
----------------------------------------------------|
----------------------------------------------------|
----------------------------------------------------|
----------------------------------------------------|
----------------------------------------------------|


--12-------12-------9--11-11-------11-------9--11---|
----------------------------------------------------|
----------------------------------------------------|
----------------------------------------------------|
----------------------------------------------------|
----------------------------------------------------|


--14-------14-------9--11-14-------14-------9--11---|
----------------------------------------------------|
----------------------------------------------------|
----------------------------------------------------|
----------------------------------------------------|
----------------------------------------------------|

Australia.xemloibaihat.com
 

--12-------12-------9--11----11----11L11L-----------|
----------------------------------------------------|
----------------------------------------------------|
----------------------------------------------------|
----------------------------------------------------|
----------------------------------------------------|


--11------------------------------------------------||
----------------------------------------------------||
----------------------------------------------------||
----------------------------------------------------||
----------------------------------------------------||
----------------------------------------------------||


You can find more useful information here: https://australia.xemloibaihat.com/chord/

See also  Tigers Jaw - Cant Wait Forever Chords | Ver. 1 | The site that provides the most complete music chords
See also  John Legend - A Good Night ft BloodPop Chords | The site that provides the most complete music chords

CHARLIE PUTH – Mother Guitar Tabs And searches related to this topic

#CHARLIE #PUTH #Mother #Guitar #Tabs

CHARLIE PUTH – Mother Guitar Tabs

>>See more useful information provided by us here: See here.

Review the information related to the topic CHARLIE PUTH – Mother Guitar Tabs again

 
Original Key: Gb Major
Time Signature: 4/4
Tempo: 120
Suggested Strumming: DU,DU,DU,DU
c h o r d  z o n e . o r g
 [INTRO]

 
Legend
L - tied note
x - dead note
h - hammer on/pull off
b - bend
s - slide
~ - vibrato
g - ghost note
> - accentuated note
t - trill
M - palm mute
. - staccato
P - popping (bass)
S - slapping (bass)
+ - tapping
W - wide vibrato
< - fade in
w - whammy bar
= - tremolo picking
v - brush up
^ - brush down
V - pick stroke up
n - pick stroke down


E |-------|-----------6-----6-----6--6--------2L-2-------------|
B |-------|----------------------------------------------------|
G |-------|----------------------------------------------------|
D |-------|----------------------------------------------------|
A |-------|----------------------------------------------------|
E |-------|----------------------------------------------------|


--------7--------7--------7--------2L-2-------------|
----------------------------------------------------|
----------------------------------------------------|
----------------------------------------------------|
----------------------------------------------------|
----------------------------------------------------|


-----------6-----6-----6--6--------7--9--------14---|
----------------------------------------------------|
----------------------------------------------------|
----------------------------------------------------|
----------------------------------------------------|
----------------------------------------------------|


--12----------11-------9--7-----------6--------4L---|
----------------------------------------------------|
----------------------------------------------------|
----------------------------------------------------|
----------------------------------------------------|
----------------------------------------------------|


--4--------6-----6-----6--6-------------------------|
-----------------------------------7L-7-------------|
----------------------------------------------------|
----------------------------------------------------|
----------------------------------------------------|
----------------------------------------------------|


--------7--------7--------7-------------------------|
-----------------------------------7L-7-------------|
----------------------------------------------------|
----------------------------------------------------|
----------------------------------------------------|
----------------------------------------------------|


-----------6-----6-----6--6--------7--9--------14---|
----------------------------------------------------|
----------------------------------------------------|
----------------------------------------------------|
----------------------------------------------------|
----------------------------------------------------|


--12----------11-------9--7-----------9--------9L---|--9--12-9--7----|
----------------------------------------------------|----------------|
----------------------------------------------------|----------------|
----------------------------------------------------|----------------|
----------------------------------------------------|----------------|
----------------------------------------------------|----------------|


--9--12-9--7----|--9--12-9--7----|--9-----7-----7--7-----2----|
----------------|----------------|----------------------------|
----------------|----------------|----------------------------|
----------------|----------------|----------------------------|
----------------|----------------|----------------------------|
----------------|----------------|----------------------------|


-----------14----14-------14----9--------11---------|
----------------------------------------------------|
----------------------------------------------------|
----------------------------------------------------|
----------------------------------------------------|
----------------------------------------------------|


--12-------11-------9-----7--------6--------4-------|
----------------------------------------------------|
----------------------------------------------------|
----------------------------------------------------|
----------------------------------------------------|
----------------------------------------------------|


-----------14----14-------14-------16----18---------|
--7-------------------------------------------------|
----------------------------------------------------|
----------------------------------------------------|
----------------------------------------------------|
----------------------------------------------------|


--------14-------14-------14-------18-------19L-----|
----------------------------------------------------|
----------------------------------------------------|
----------------------------------------------------|
----------------------------------------------------|
----------------------------------------------------|


--19-------14----14-------14----9--------11---------|
----------------------------------------------------|
----------------------------------------------------|
----------------------------------------------------|
----------------------------------------------------|
----------------------------------------------------|


--12-------11-------9-----7--------6--------4-------|
----------------------------------------------------|
----------------------------------------------------|
----------------------------------------------------|
----------------------------------------------------|
----------------------------------------------------|


-----------14----14-------14-------16----18---------|
--7-------------------------------------------------|
----------------------------------------------------|
----------------------------------------------------|
----------------------------------------------------|
----------------------------------------------------|


--------14-------14-------14-------18-------19L-----|
----------------------------------------------------|
----------------------------------------------------|
----------------------------------------------------|
----------------------------------------------------|
----------------------------------------------------|


--19-------------6-----6--6--------2L-2-------------|
----------------------------------------------------|
-----------15---------------------------------------|
----------------------------------------------------|
----------------------------------------------------|
----------------------------------------------------|


--------7--------7--------7-------------------------|
-----------------------------------7L-7-------------|
----------------------------------------------------|
----------------------------------------------------|
----------------------------------------------------|
----------------------------------------------------|


-----------6-----6-----6--6--------7--9--------14---|
----------------------------------------------------|
----------------------------------------------------|
----------------------------------------------------|
----------------------------------------------------|
----------------------------------------------------|


--12----------11-------9--7-----------6--------4L---|
----------------------------------------------------|
----------------------------------------------------|
----------------------------------------------------|
----------------------------------------------------|
----------------------------------------------------|


--4--------6-----6-----6--6-------------------------|
-----------------------------------7L-7-------------|
----------------------------------------------------|
----------------------------------------------------|
----------------------------------------------------|
----------------------------------------------------|


--------7--------7--------7--------2L-2-------------|
----------------------------------------------------|
----------------------------------------------------|
----------------------------------------------------|
----------------------------------------------------|
----------------------------------------------------|


-----------6-----6-----6--6--------7--9--------14---|
----------------------------------------------------|
----------------------------------------------------|
----------------------------------------------------|
----------------------------------------------------|
----------------------------------------------------|


--12----------11-------9--7-----------9--------9L---|--9--12-9--7----|
----------------------------------------------------|----------------|
----------------------------------------------------|----------------|
----------------------------------------------------|----------------|
----------------------------------------------------|----------------|
----------------------------------------------------|----------------|


--9--12-9--7----|--9--12-9-------|
----------------|-----------12---|
----------------|----------------|
----------------|----------------|
----------------|----------------|
----------------|----------------|


--14-------14-------14----14-------14L14L-----------|
----------------------------------------------------|
----------------------------------------------------|
----------------------------------------------------|
----------------------------------------------------|
----------------------------------------------------|


--14-------14----14-------14----9--------11---------|
----------------------------------------------------|
----------------------------------------------------|
----------------------------------------------------|
----------------------------------------------------|
----------------------------------------------------|


--12-------11-------9-----7--------6--------4-------|
----------------------------------------------------|
----------------------------------------------------|
----------------------------------------------------|
----------------------------------------------------|
----------------------------------------------------|


-----------14----14-------14-------16----18---------|
--7-------------------------------------------------|
----------------------------------------------------|
----------------------------------------------------|
----------------------------------------------------|
----------------------------------------------------|


--------14-------14-------14-------18-------19L-----|
----------------------------------------------------|
----------------------------------------------------|
----------------------------------------------------|
----------------------------------------------------|
----------------------------------------------------|


--19-------14----14-------14----9--------11---------|
----------------------------------------------------|
----------------------------------------------------|
----------------------------------------------------|
----------------------------------------------------|
----------------------------------------------------|


--12-------11-------9-----7--------6--------4-------|
----------------------------------------------------|
----------------------------------------------------|
----------------------------------------------------|
----------------------------------------------------|
----------------------------------------------------|


-----------14----14-------14-------16----18---------|
--7-------------------------------------------------|
----------------------------------------------------|
----------------------------------------------------|
----------------------------------------------------|
----------------------------------------------------|


--------14-------14-------14-------18-------19------|
----------------------------------------------------|
----------------------------------------------------|
----------------------------------------------------|
----------------------------------------------------|
----------------------------------------------------|


--14-------14----9-----11-14-------14----9--11------|
----------------------------------------------------|
----------------------------------------------------|
----------------------------------------------------|
----------------------------------------------------|
----------------------------------------------------|


--12-------12----9-----11-11-------11----9-----11---|
----------------------------------------------------|
----------------------------------------------------|
----------------------------------------------------|
----------------------------------------------------|
----------------------------------------------------|


--14-------14----9--11----14----14-------9--11------|
----------------------------------------------------|
----------------------------------------------------|
----------------------------------------------------|
----------------------------------------------------|
----------------------------------------------------|


--12-------12----9-----11-11----11----12----14------|
----------------------------------------------------|
----------------------------------------------------|
----------------------------------------------------|
----------------------------------------------------|
----------------------------------------------------|


--14-------14-------9--11-14-------14----9-----11---|
----------------------------------------------------|
----------------------------------------------------|
----------------------------------------------------|
----------------------------------------------------|
----------------------------------------------------|


--12-------12-------9--11-11-------11-------9--11---|
----------------------------------------------------|
----------------------------------------------------|
----------------------------------------------------|
----------------------------------------------------|
----------------------------------------------------|


--14-------14-------9--11-14-------14-------9--11---|
----------------------------------------------------|
----------------------------------------------------|
----------------------------------------------------|
----------------------------------------------------|
----------------------------------------------------|


--12-------12-------9--11----11----11L11L-----------|--11------------|-------|
----------------------------------------------------|----------------|-------|
----------------------------------------------------|----------------|-------|
----------------------------------------------------|----------------|-------|
----------------------------------------------------|----------------|-------|
----------------------------------------------------|----------------|-------|


-----------6-----6-----6--6-------------------------|
-----------------------------------7L-7-------------|
----------------------------------------------------|
----------------------------------------------------|
----------------------------------------------------|
----------------------------------------------------|


--------7--------7--------7-------------------------|
-----------------------------------7L-7-------------|
----------------------------------------------------|
----------------------------------------------------|
----------------------------------------------------|
----------------------------------------------------|


-----------6-----6-----6--6--------7--9--------14---|
----------------------------------------------------|
----------------------------------------------------|
----------------------------------------------------|
----------------------------------------------------|
----------------------------------------------------|


--12----------11-------9--7-----------6--------4L---|
----------------------------------------------------|
----------------------------------------------------|
----------------------------------------------------|
----------------------------------------------------|
----------------------------------------------------|


Australia.xemloibaihat.com
 
--4--------6-----6-----6--6-------------------------|
-----------------------------------7L-7-------------|
----------------------------------------------------|
----------------------------------------------------|
----------------------------------------------------|
----------------------------------------------------|


--------7--------7--------7-------------------------|
-----------------------------------7L-7-------------|
----------------------------------------------------|
----------------------------------------------------|
----------------------------------------------------|
----------------------------------------------------|


-----------6-----6-----6--6--------7--9--------14---|
----------------------------------------------------|
----------------------------------------------------|
----------------------------------------------------|
----------------------------------------------------|
----------------------------------------------------|


--12----------11-------9--7-----------9--------9L---|--9--12-9--7----|
----------------------------------------------------|----------------|
----------------------------------------------------|----------------|
----------------------------------------------------|----------------|
----------------------------------------------------|----------------|
----------------------------------------------------|----------------|


--9--12-9--7----|--9--12-9--7----|--9-----7-----7--7-----2----|
----------------|----------------|----------------------------|
----------------|----------------|----------------------------|
----------------|----------------|----------------------------|
----------------|----------------|----------------------------|
----------------|----------------|----------------------------|


-----------14----14-------14----9--------11---------|
----------------------------------------------------|
----------------------------------------------------|
----------------------------------------------------|
----------------------------------------------------|
----------------------------------------------------|


--12-------11-------9-----7--------6--------4-------|
----------------------------------------------------|
----------------------------------------------------|
----------------------------------------------------|
----------------------------------------------------|
----------------------------------------------------|


-----------14----14-------14-------16----18---------|
--7-------------------------------------------------|
----------------------------------------------------|
----------------------------------------------------|
----------------------------------------------------|
----------------------------------------------------|


--------14-------14-------14-------18-------19L-----|
----------------------------------------------------|
----------------------------------------------------|
----------------------------------------------------|
----------------------------------------------------|
----------------------------------------------------|


--19-------14----14-------14----9--------11---------|
----------------------------------------------------|
----------------------------------------------------|
----------------------------------------------------|
----------------------------------------------------|
----------------------------------------------------|


--12-------11-------9-----7--------6--------4-------|
----------------------------------------------------|
----------------------------------------------------|
----------------------------------------------------|
----------------------------------------------------|
----------------------------------------------------|


-----------14----14-------14-------16----18---------|
--7-------------------------------------------------|
----------------------------------------------------|
----------------------------------------------------|
----------------------------------------------------|
----------------------------------------------------|


--------14-------14-------14-------18-------19L-----|
----------------------------------------------------|
----------------------------------------------------|
----------------------------------------------------|
----------------------------------------------------|
----------------------------------------------------|


--19-------------6-----6--6-------------------------|
-----------------------------------7L-7-------------|
-----------15---------------------------------------|
----------------------------------------------------|
----------------------------------------------------|
----------------------------------------------------|


--------7--------7--------7-------------------------|
-----------------------------------7L-7-------------|
----------------------------------------------------|
----------------------------------------------------|
----------------------------------------------------|
----------------------------------------------------|


-----------6-----6-----6--6--------7--9--------14---|
----------------------------------------------------|
----------------------------------------------------|
----------------------------------------------------|
----------------------------------------------------|
----------------------------------------------------|


--12----------11-------9--7-----------6--------4L---|
----------------------------------------------------|
----------------------------------------------------|
----------------------------------------------------|
----------------------------------------------------|
----------------------------------------------------|


--4--------6-----6-----6--6-------------------------|
-----------------------------------7L-7-------------|
----------------------------------------------------|
----------------------------------------------------|
----------------------------------------------------|
----------------------------------------------------|


--------7--------7--------7-------------------------|
-----------------------------------7L-7-------------|
----------------------------------------------------|
----------------------------------------------------|
----------------------------------------------------|
----------------------------------------------------|


-----------6-----6-----6--6--------7--9--------14---|
----------------------------------------------------|
----------------------------------------------------|
----------------------------------------------------|
----------------------------------------------------|
----------------------------------------------------|


--12----------11-------9--7-----------9--------9L---|--9--12-9--7----|
----------------------------------------------------|----------------|
----------------------------------------------------|----------------|
----------------------------------------------------|----------------|
----------------------------------------------------|----------------|
----------------------------------------------------|----------------|


--9--12-9--7----|--9--12-9-------|
----------------|-----------12---|
----------------|----------------|
----------------|----------------|
----------------|----------------|
----------------|----------------|


--14-------14-------14----14-------14L14L-----------|
----------------------------------------------------|
----------------------------------------------------|
----------------------------------------------------|
----------------------------------------------------|
----------------------------------------------------|


--14-------14----14-------14----9--------11---------|
----------------------------------------------------|
----------------------------------------------------|
----------------------------------------------------|
----------------------------------------------------|
----------------------------------------------------|


--12-------11-------9-----7--------6--------4-------|
----------------------------------------------------|
----------------------------------------------------|
----------------------------------------------------|
----------------------------------------------------|
----------------------------------------------------|


-----------14----14-------14-------16----18---------|
--7-------------------------------------------------|
----------------------------------------------------|
----------------------------------------------------|
----------------------------------------------------|
----------------------------------------------------|


--------14-------14-------14-------18-------19L-----|
----------------------------------------------------|
----------------------------------------------------|
----------------------------------------------------|
----------------------------------------------------|
----------------------------------------------------|


--19-------14----14-------14----9--------11---------|
----------------------------------------------------|
----------------------------------------------------|
----------------------------------------------------|
----------------------------------------------------|
----------------------------------------------------|


--12-------11-------9-----7--------6--------4-------|
----------------------------------------------------|
----------------------------------------------------|
----------------------------------------------------|
----------------------------------------------------|
----------------------------------------------------|


-----------14----14-------14-------16----18---------|
--7-------------------------------------------------|
----------------------------------------------------|
----------------------------------------------------|
----------------------------------------------------|
----------------------------------------------------|


--------14-------14-------14-------18-------19------|
----------------------------------------------------|
----------------------------------------------------|
----------------------------------------------------|
----------------------------------------------------|
----------------------------------------------------|


--14-------14----9-----11-14-------14----9--11------|
----------------------------------------------------|
----------------------------------------------------|
----------------------------------------------------|
----------------------------------------------------|
----------------------------------------------------|


--12-------12----9-----11-11-------11----9-----11---|
----------------------------------------------------|
----------------------------------------------------|
----------------------------------------------------|
----------------------------------------------------|
----------------------------------------------------|


--14-------14----9--11----14----14-------9--11------|
----------------------------------------------------|
----------------------------------------------------|
----------------------------------------------------|
----------------------------------------------------|
----------------------------------------------------|


--12-------12----9-----11-11----11----12----14------|
----------------------------------------------------|
----------------------------------------------------|
----------------------------------------------------|
----------------------------------------------------|
----------------------------------------------------|


--14-------14-------9--11-14-------14----9-----11---|
----------------------------------------------------|
----------------------------------------------------|
----------------------------------------------------|
----------------------------------------------------|
----------------------------------------------------|


--12-------12-------9--11-11-------11-------9--11---|
----------------------------------------------------|
----------------------------------------------------|
----------------------------------------------------|
----------------------------------------------------|
----------------------------------------------------|


--14-------14-------9--11-14-------14-------9--11---|
----------------------------------------------------|
----------------------------------------------------|
----------------------------------------------------|
----------------------------------------------------|
----------------------------------------------------|

Australia.xemloibaihat.com
 

--12-------12-------9--11----11----11L11L-----------|
----------------------------------------------------|
----------------------------------------------------|
----------------------------------------------------|
----------------------------------------------------|
----------------------------------------------------|


--11------------------------------------------------||
----------------------------------------------------||
----------------------------------------------------||
----------------------------------------------------||
----------------------------------------------------||
----------------------------------------------------||


Thank you very much for your interest in our article. We hope this information is of great value to you.

See also  La Vie En Rose | The site that provides the most complete music chords

Leave a Reply

Your email address will not be published.