Home » Citizen – Thin Air Tabs | Ver. 1 | The site that provides the most complete music chords

Citizen – Thin Air Tabs | Ver. 1 | The site that provides the most complete music chords

Are you looking for a topic Citizen – Thin Air Tabs | Ver. 1
right? If so, then you can watch it right here.

Citizen – Thin Air Tabs | Ver. 1
| You can find many other song chords here

Australia.xemloibaihat.com | Citizen – Thin Air Tabs | Ver. 1


[Verse 1]
 
e|-----------------|-9----9--9----9--9----|-----------------|-----------------|
B|-7---7-7---7-7---|-10---10-10---10-10---|-5---5-5---5-5---|-4---4-4---4-4---|
G|-7---7-7---7-7---|-9----9--9----9--9----|-6---6-6---6-6---|-4---4-4---4-4---|
D|-7---7-7---7-7---|----------------------|-6---6-6---6-6---|-4---4-4---4-4---|
A|-5---5-5---5-5---|----------------------|-4---4-4---4-4---|-2---2-2---2-2---|
E|-----------------|----------------------|-----------------|-----------------|
 
e|-----------------|-9----9--9----9--9----|-----------------|-----------------|
B|-7---7-7---7-7---|-10---10-10---10-10---|-5---5-5---5-5---|-3---3-3---3-3---|
G|-7---7-7---7-7---|-9----9--9----9--9----|-6---6-6---6-6---|-2---2-2---2-2---|
D|-7---7-7---7-7---|----------------------|-6---6-6---6-6---|-4---4-4---4-4---|
A|-5---5-5---5-5---|----------------------|-4---4-4---4-4---|-2---2-2---2-2---|
E|-----------------|----------------------|-----------------|-----------------|
 
e|-----------------|-9----9--9----9--9----|-----------------|-----------------|
B|-7---7-7---7-7---|-10---10-10---10-10---|-5---5-5---5-5---|-4---4-4---4-4---|
G|-7---7-7---7-7---|-9----9--9----9--9----|-6---6-6---6-6---|-4---4-4---4-4---|
D|-7---7-7---7-7---|----------------------|-6---6-6---6-6---|-4---4-4---4-4---|
A|-5---5-5---5-5---|----------------------|-4---4-4---4-4---|-2---2-2---2-2---|
E|-----------------|----------------------|-----------------|-----------------|
 
e|-----------------|-9----9--9----9--9----|-----------------|-----------------|
B|-7---7-7---7-7---|-10---10-10---10-10---|-5---5-5---5-5---|-3---3-3---3-3---|
G|-7---7-7---7-7---|-9----9--9----9--9----|-6---6-6---6-6---|-2---2-2---2-2---|
D|-7---7-7---7-7---|----------------------|-6---6-6---6-6---|-4---4-4---4-4---|
A|-5---5-5---5-5---|----------------------|-4---4-4---4-4---|-2---2-2---2-2---|
E|-----------------|----------------------|-----------------|-----------------|
 
 
[Interlude]
 
e|--------------------|------------------|-----------------|-----------------|
B|--------------------|------------------|-----3-3-3-3-3-3-|-3-3-3-3-3-3-3-3-|
G|--------------------|------------------|-----2-2-2-2-2-2-|-2-2-2-2-2-2-2-2-|
D|-4---4-4-11-11-11-9-|-2-2-2-2-2-2-2-2-|-----4-4-4-4-4-4-|-4-4-4-4-4-4-4-4-|
A|--------------------|------------------|-2---------------|-----------------|  x2
E|--------------------|------------------|-----------------|-----------------|
 
 
[Verse 2]
 
e|-----------------|-9----9--9----9--9----|-----------------|-----------------|
B|-7---7-7---7-7---|-10---10-10---10-10---|-5---5-5---5-5---|-4---4-4---4-4---|
G|-7---7-7---7-7---|-9----9--9----9--9----|-6---6-6---6-6---|-4---4-4---4-4---|
D|-7---7-7---7-7---|----------------------|-6---6-6---6-6---|-4---4-4---4-4---|
A|-5---5-5---5-5---|----------------------|-4---4-4---4-4---|-2---2-2---2-2---|
E|-----------------|----------------------|-----------------|-----------------|
 
e|-----------------|-9----9--9----9--9----|-----------------|-----------------|
B|-7---7-7---7-7---|-10---10-10---10-10---|-5---5-5---5-5---|-3---3-3---3-3---|
G|-7---7-7---7-7---|-9----9--9----9--9----|-6---6-6---6-6---|-2---2-2---2-2---|
D|-7---7-7---7-7---|----------------------|-6---6-6---6-6---|-4---4-4---4-4---|
A|-5---5-5---5-5---|----------------------|-4---4-4---4-4---|-2---2-2---2-2---|
E|-----------------|----------------------|-----------------|-----------------|
 
e|-----------------|-9----9--9----9--9----|-----------------|-----------------|
B|-7---7-7---7-7---|-10---10-10---10-10---|-5---5-5---5-5---|-4---4-4---4-4---|
G|-7---7-7---7-7---|-9----9--9----9--9----|-6---6-6---6-6---|-4---4-4---4-4---|
D|-7---7-7---7-7---|----------------------|-6---6-6---6-6---|-4---4-4---4-4---|
A|-5---5-5---5-5---|----------------------|-4---4-4---4-4---|-2---2-2---2-2---|
E|-----------------|----------------------|-----------------|-----------------|
 
e|-----------------|-9----9--9----9--9----|-----------------|-----------------|
B|-7---7-7---7-7---|-10---10-10---10-10---|-5---5-5---5-5---|-3---3-3---3-3---|
G|-7---7-7---7-7---|-9----9--9----9--9----|-6---6-6---6-6---|-2---2-2---2-2---|
D|-7---7-7---7-7---|----------------------|-6---6-6---6-6---|-4---4-4---4-4---|
A|-5---5-5---5-5---|----------------------|-4---4-4---4-4---|-2---2-2---2-2---|
E|-----------------|----------------------|-----------------|-----------------|
 
 
[Bridge]
 
e|--------------------|------------------|-----------------|-----------------|
B|--------------------|------------------|-----3-3-3-3-3-3-|-3-3-3-3-3-3-3-3-|
G|--------------------|------------------|-----2-2-2-2-2-2-|-2-2-2-2-2-2-2-2-|
D|-4---4-4-11-11-11-9-|-2-2-2-2-2-2-2-2-|-----4-4-4-4-4-4-|-4-4-4-4-4-4-4-4-|
A|--------------------|------------------|-2---------------|-----------------|  x4
E|--------------------|------------------|-----------------|-----------------|
 
 
[Interlude]
 
e|-------------------------|-----------------|-----------------|-----------------|
B|-10-10-10-10-10-10-10-10-|-5-5-5-5-5-5-5-5-|-3-3-3-3-3-3-3-3-|-3-3-3-3-3-3-3-3-|
G|-9--9--9--9--9--9--9--9--|-6-6-6-6-6-6-6-6-|-2-2-2-2-2-2-2-2-|-2-2-2-2-2-2-2-2-|
D|-11-11-11-11-11-11-11-11-|-6-6-6-6-6-6-6-6-|-4-4-4-4-4-4-4-4-|-4-4-4-4-4-4-4-4-|
A|-9--9--9--9--9--9--9--9--|-4-4-4-4-4-4-4-4-|-2-2-2-2-2-2-2-2-|-2-2-2-2-2-2-2-2-|  x3
E|-------------------------|-----------------|-----------------|-----------------|
 
 
[Verse 3]
 
e|-------------------------|-----------------|-----------------|-----------------|
B|-10-10-10-10-10-10-10-10-|-5-5-5-5-5-5-5-5-|-3-3-3-3-3-3-3-3-|-3-3-3-3-3-3-3-3-|
G|-9--9--9--9--9--9--9--9--|-6-6-6-6-6-6-6-6-|-2-2-2-2-2-2-2-2-|-2-2-2-2-2-2-2-2-|
D|-11-11-11-11-11-11-11-11-|-6-6-6-6-6-6-6-6-|-4-4-4-4-4-4-4-4-|-4-4-4-4-4-4-4-4-|
A|-9--9--9--9--9--9--9--9--|-4-4-4-4-4-4-4-4-|-2-2-2-2-2-2-2-2-|-2-2-2-2-2-2-2-2-|  x2
E|-------------------------|-----------------|-----------------|-----------------|
 
e|--------------------|------------------|-------------|
B|--------------------|------------------|-3-----------|
G|--------------------|------------------|-2-----------|
D|-4---4-4-11-11-11-9-|-2-2-2-2-2-2-2-2-|-4-----------|
A|--------------------|------------------|-2-----------|
E|--------------------|------------------|-------------|
            

See also  Captain Beefheart And His Magic Band - Sweet Sweet Bulbs Tabs | Ver. 1 | The site that provides the most complete music chords

You can find more useful information here: See more here

Citizen – Thin Air Tabs | Ver. 1
And searches related to this topic

#Citizen #Thin #Air #Tabs #Ver

See also  Scaredy Cat by DPR IAN | The site that provides the most complete music chords

Citizen – Thin Air Tabs | Ver. 1

>>See more useful information provided by us here: Australia.xemloibaihat.com.

Review the information related to the topic Citizen – Thin Air Tabs | Ver. 1
again

Australia.xemloibaihat.com | Citizen – Thin Air Tabs | Ver. 1


[Verse 1]
 
e|-----------------|-9----9--9----9--9----|-----------------|-----------------|
B|-7---7-7---7-7---|-10---10-10---10-10---|-5---5-5---5-5---|-4---4-4---4-4---|
G|-7---7-7---7-7---|-9----9--9----9--9----|-6---6-6---6-6---|-4---4-4---4-4---|
D|-7---7-7---7-7---|----------------------|-6---6-6---6-6---|-4---4-4---4-4---|
A|-5---5-5---5-5---|----------------------|-4---4-4---4-4---|-2---2-2---2-2---|
E|-----------------|----------------------|-----------------|-----------------|
 
e|-----------------|-9----9--9----9--9----|-----------------|-----------------|
B|-7---7-7---7-7---|-10---10-10---10-10---|-5---5-5---5-5---|-3---3-3---3-3---|
G|-7---7-7---7-7---|-9----9--9----9--9----|-6---6-6---6-6---|-2---2-2---2-2---|
D|-7---7-7---7-7---|----------------------|-6---6-6---6-6---|-4---4-4---4-4---|
A|-5---5-5---5-5---|----------------------|-4---4-4---4-4---|-2---2-2---2-2---|
E|-----------------|----------------------|-----------------|-----------------|
 
e|-----------------|-9----9--9----9--9----|-----------------|-----------------|
B|-7---7-7---7-7---|-10---10-10---10-10---|-5---5-5---5-5---|-4---4-4---4-4---|
G|-7---7-7---7-7---|-9----9--9----9--9----|-6---6-6---6-6---|-4---4-4---4-4---|
D|-7---7-7---7-7---|----------------------|-6---6-6---6-6---|-4---4-4---4-4---|
A|-5---5-5---5-5---|----------------------|-4---4-4---4-4---|-2---2-2---2-2---|
E|-----------------|----------------------|-----------------|-----------------|
 
e|-----------------|-9----9--9----9--9----|-----------------|-----------------|
B|-7---7-7---7-7---|-10---10-10---10-10---|-5---5-5---5-5---|-3---3-3---3-3---|
G|-7---7-7---7-7---|-9----9--9----9--9----|-6---6-6---6-6---|-2---2-2---2-2---|
D|-7---7-7---7-7---|----------------------|-6---6-6---6-6---|-4---4-4---4-4---|
A|-5---5-5---5-5---|----------------------|-4---4-4---4-4---|-2---2-2---2-2---|
E|-----------------|----------------------|-----------------|-----------------|
 
 
[Interlude]
 
e|--------------------|------------------|-----------------|-----------------|
B|--------------------|------------------|-----3-3-3-3-3-3-|-3-3-3-3-3-3-3-3-|
G|--------------------|------------------|-----2-2-2-2-2-2-|-2-2-2-2-2-2-2-2-|
D|-4---4-4-11-11-11-9-|-2-2-2-2-2-2-2-2-|-----4-4-4-4-4-4-|-4-4-4-4-4-4-4-4-|
A|--------------------|------------------|-2---------------|-----------------|  x2
E|--------------------|------------------|-----------------|-----------------|
 
 
[Verse 2]
 
e|-----------------|-9----9--9----9--9----|-----------------|-----------------|
B|-7---7-7---7-7---|-10---10-10---10-10---|-5---5-5---5-5---|-4---4-4---4-4---|
G|-7---7-7---7-7---|-9----9--9----9--9----|-6---6-6---6-6---|-4---4-4---4-4---|
D|-7---7-7---7-7---|----------------------|-6---6-6---6-6---|-4---4-4---4-4---|
A|-5---5-5---5-5---|----------------------|-4---4-4---4-4---|-2---2-2---2-2---|
E|-----------------|----------------------|-----------------|-----------------|
 
e|-----------------|-9----9--9----9--9----|-----------------|-----------------|
B|-7---7-7---7-7---|-10---10-10---10-10---|-5---5-5---5-5---|-3---3-3---3-3---|
G|-7---7-7---7-7---|-9----9--9----9--9----|-6---6-6---6-6---|-2---2-2---2-2---|
D|-7---7-7---7-7---|----------------------|-6---6-6---6-6---|-4---4-4---4-4---|
A|-5---5-5---5-5---|----------------------|-4---4-4---4-4---|-2---2-2---2-2---|
E|-----------------|----------------------|-----------------|-----------------|
 
e|-----------------|-9----9--9----9--9----|-----------------|-----------------|
B|-7---7-7---7-7---|-10---10-10---10-10---|-5---5-5---5-5---|-4---4-4---4-4---|
G|-7---7-7---7-7---|-9----9--9----9--9----|-6---6-6---6-6---|-4---4-4---4-4---|
D|-7---7-7---7-7---|----------------------|-6---6-6---6-6---|-4---4-4---4-4---|
A|-5---5-5---5-5---|----------------------|-4---4-4---4-4---|-2---2-2---2-2---|
E|-----------------|----------------------|-----------------|-----------------|
 
e|-----------------|-9----9--9----9--9----|-----------------|-----------------|
B|-7---7-7---7-7---|-10---10-10---10-10---|-5---5-5---5-5---|-3---3-3---3-3---|
G|-7---7-7---7-7---|-9----9--9----9--9----|-6---6-6---6-6---|-2---2-2---2-2---|
D|-7---7-7---7-7---|----------------------|-6---6-6---6-6---|-4---4-4---4-4---|
A|-5---5-5---5-5---|----------------------|-4---4-4---4-4---|-2---2-2---2-2---|
E|-----------------|----------------------|-----------------|-----------------|
 
 
[Bridge]
 
e|--------------------|------------------|-----------------|-----------------|
B|--------------------|------------------|-----3-3-3-3-3-3-|-3-3-3-3-3-3-3-3-|
G|--------------------|------------------|-----2-2-2-2-2-2-|-2-2-2-2-2-2-2-2-|
D|-4---4-4-11-11-11-9-|-2-2-2-2-2-2-2-2-|-----4-4-4-4-4-4-|-4-4-4-4-4-4-4-4-|
A|--------------------|------------------|-2---------------|-----------------|  x4
E|--------------------|------------------|-----------------|-----------------|
 
 
[Interlude]
 
e|-------------------------|-----------------|-----------------|-----------------|
B|-10-10-10-10-10-10-10-10-|-5-5-5-5-5-5-5-5-|-3-3-3-3-3-3-3-3-|-3-3-3-3-3-3-3-3-|
G|-9--9--9--9--9--9--9--9--|-6-6-6-6-6-6-6-6-|-2-2-2-2-2-2-2-2-|-2-2-2-2-2-2-2-2-|
D|-11-11-11-11-11-11-11-11-|-6-6-6-6-6-6-6-6-|-4-4-4-4-4-4-4-4-|-4-4-4-4-4-4-4-4-|
A|-9--9--9--9--9--9--9--9--|-4-4-4-4-4-4-4-4-|-2-2-2-2-2-2-2-2-|-2-2-2-2-2-2-2-2-|  x3
E|-------------------------|-----------------|-----------------|-----------------|
 
 
[Verse 3]
 
e|-------------------------|-----------------|-----------------|-----------------|
B|-10-10-10-10-10-10-10-10-|-5-5-5-5-5-5-5-5-|-3-3-3-3-3-3-3-3-|-3-3-3-3-3-3-3-3-|
G|-9--9--9--9--9--9--9--9--|-6-6-6-6-6-6-6-6-|-2-2-2-2-2-2-2-2-|-2-2-2-2-2-2-2-2-|
D|-11-11-11-11-11-11-11-11-|-6-6-6-6-6-6-6-6-|-4-4-4-4-4-4-4-4-|-4-4-4-4-4-4-4-4-|
A|-9--9--9--9--9--9--9--9--|-4-4-4-4-4-4-4-4-|-2-2-2-2-2-2-2-2-|-2-2-2-2-2-2-2-2-|  x2
E|-------------------------|-----------------|-----------------|-----------------|
 
e|--------------------|------------------|-------------|
B|--------------------|------------------|-3-----------|
G|--------------------|------------------|-2-----------|
D|-4---4-4-11-11-11-9-|-2-2-2-2-2-2-2-2-|-4-----------|
A|--------------------|------------------|-2-----------|
E|--------------------|------------------|-------------|
            

See also  Lemon Demon - The Afternoon Chords | Ver. 1 | The site that provides the most complete music chords

Thank you very much for your interest in our article. We hope this information is of great value to you.

Leave a Reply

Your email address will not be published.