Home » Codeine – Hard To Find Bass | Ver. 1 | The site that provides the most complete music chords

Codeine – Hard To Find Bass | Ver. 1 | The site that provides the most complete music chords

Are you looking for a topic Codeine – Hard To Find Bass | Ver. 1
right? If so, then you can watch it right here.

Codeine – Hard To Find Bass | Ver. 1
| You can find many other song chords here

Australia.xemloibaihat.com | Codeine – Hard To Find Bass | Ver. 1


[Verse 1]
 
G|-----------------------------------------------------------------|
D|-----------------------------------------------------------------|
A|-----------------------------------------------------------------|
E|-0-------2-------5-------0-------0-------2-------5-------7-------|
 
G|-----------------------------------------------------------------|
D|-----------------------------------------------------------------|
A|-----------------------------------------------------------------|
E|-0-------2-------5-------0-------0-------2-------4-------5---5-7-|
 
 
[Chorus]
 
G|-----------------------------------------------------------------|
D|-----------------------------------------------------------------|
A|-4-------4-------0-----0-0---6---4-------4---2---0-----0-0---6---|
E|-----------------------------------------------------------------|
 
G|-----------------------------------------------------------------|
D|-----------------------------------------------------------------|
A|-4-------4-----4-0-----0-0---6-----------------------------------|
E|---------------------------------4-------------------------------|
 
 
[Verse 2]
 
G|-----------------------------------------------------------------|
D|-----------------------------------------------------------------|
A|-----------------------------------------------------------------|
E|-0-------2-------5-------0-------0-------2-------5-------7-----7-|
 
G|-----------------------------------------------------------------|
D|-----------------------------------------------------------------|
A|-----------------------------------------------------------------|
E|-0-------2-------5-------0-------0-------2-------4-------5---5-7-|
 
 
[Chorus]
 
G|-----------------------------------------------------------------|
D|-----------------------------------------------------------------|
A|-4-------4-----2-0-----0-0---6---4-------4---2---0-------0---6---|
E|-----------------------------------------------------------------|
 
G|-----------------------------------------------------------------|
D|-----------------------------------------------------------------|
A|-4-------4---2---0-----0-0---6---4-------4---4---0-----0-0---6---|
E|-----------------------------------------------------------------|
 
G|-----------------------------------------------------------------|
D|-----------------------------------------------------------------|
A|-4-------4---4-2-0-----0-0---6---4-------4---2---0-----0-0---6---|
E|-----------------------------------------------------------------|
 
G|-----------------------------------------------------------------|
D|-----------------------------------------------------------------|
A|-0---------------------------------------------------------------|
E|-----------------------------------------------------------------|
            

See also  Taylor Swift - the last great american dynasty Chords | The site that provides the most complete music chords

You can find more useful information here: Australia.xemloibaihat.com/chord

Codeine – Hard To Find Bass | Ver. 1
And searches related to this topic

#Codeine #Hard #Find #Bass #Ver

See also  Sara Bareilles - December (Guitar Chords & Lesson) by Shawn Parrotte | gravity sara bareilles chords piano | #1 song chords

Codeine – Hard To Find Bass | Ver. 1

>>See more useful information provided by us here: View here.

Review the information related to the topic Codeine – Hard To Find Bass | Ver. 1
again

Australia.xemloibaihat.com | Codeine – Hard To Find Bass | Ver. 1


[Verse 1]
 
G|-----------------------------------------------------------------|
D|-----------------------------------------------------------------|
A|-----------------------------------------------------------------|
E|-0-------2-------5-------0-------0-------2-------5-------7-------|
 
G|-----------------------------------------------------------------|
D|-----------------------------------------------------------------|
A|-----------------------------------------------------------------|
E|-0-------2-------5-------0-------0-------2-------4-------5---5-7-|
 
 
[Chorus]
 
G|-----------------------------------------------------------------|
D|-----------------------------------------------------------------|
A|-4-------4-------0-----0-0---6---4-------4---2---0-----0-0---6---|
E|-----------------------------------------------------------------|
 
G|-----------------------------------------------------------------|
D|-----------------------------------------------------------------|
A|-4-------4-----4-0-----0-0---6-----------------------------------|
E|---------------------------------4-------------------------------|
 
 
[Verse 2]
 
G|-----------------------------------------------------------------|
D|-----------------------------------------------------------------|
A|-----------------------------------------------------------------|
E|-0-------2-------5-------0-------0-------2-------5-------7-----7-|
 
G|-----------------------------------------------------------------|
D|-----------------------------------------------------------------|
A|-----------------------------------------------------------------|
E|-0-------2-------5-------0-------0-------2-------4-------5---5-7-|
 
 
[Chorus]
 
G|-----------------------------------------------------------------|
D|-----------------------------------------------------------------|
A|-4-------4-----2-0-----0-0---6---4-------4---2---0-------0---6---|
E|-----------------------------------------------------------------|
 
G|-----------------------------------------------------------------|
D|-----------------------------------------------------------------|
A|-4-------4---2---0-----0-0---6---4-------4---4---0-----0-0---6---|
E|-----------------------------------------------------------------|
 
G|-----------------------------------------------------------------|
D|-----------------------------------------------------------------|
A|-4-------4---4-2-0-----0-0---6---4-------4---2---0-----0-0---6---|
E|-----------------------------------------------------------------|
 
G|-----------------------------------------------------------------|
D|-----------------------------------------------------------------|
A|-0---------------------------------------------------------------|
E|-----------------------------------------------------------------|
            

See also  MEHRO – Chance With You Chords and Tabs for Guitar and Piano | The site that provides the most complete music chords

Thank you very much for your interest in our article. We hope this information is of great value to you.

Leave a Reply

Your email address will not be published.