Codeine – Washed Up Chords | Ver. 1 | The site that provides the most complete music chords

Are you looking for a topic Codeine – Washed Up Chords | Ver. 1
right? If so, then you can watch it right here.

Codeine – Washed Up Chords | Ver. 1
| You can find many other song chords here

Australia.xemloibaihat.com | Codeine – Washed Up Chords | Ver. 1


[Intro] bass comes in at (0:09)
 
G|---------------------------------|
D|-0-------------------------------|
A|---------------------------------| x4
E|-----------------4-----5-----2---|
 
 
[Verse 1]
 
G|-----------------------------------------------------------------|
D|-----------------------------------------------------------------|
A|-4---4---4---4---4---4---4---4---4-------4---4---4---4---4---4---|
E|-----------------------------------------------------------------|
 
G|-----------------------------------------------------------------|
D|-----------------------------------------------------------------|
A|-5---5---5---5---5---5---5---5---5---5---5---5---5---5---5---5---|
E|-----------------------------------------------------------------|
 
G|-----------------------------------------------------------------|
D|-----------------------------------------------------------------|
A|-----------------------------------------------------------------|
E|---------------------------------5---5---5---5---5---5---5---5---|
 
 
[Chorus]
 
G|---------------------------------|
D|-0-------------------------------|
A|---------------------------------| x3
E|-----------------4-----5-----2---|
 
G|---------------------------------|
D|-0-------------------------------|
A|---------------------------------|
E|-----------------4-------5---2---|
 
 
[Verse 2]
 
G|-----------------------------------------------------------------|
D|-----------------------------------------------------------------|
A|-4---4---4---4---4---4---4---4---4---4---4---4---4---4---4---4---|
E|-----------------------------------------------------------------|
 
G|-----------------------------------------------------------------|
D|-----------------------------------------------------------------|
A|-5---5---5---5---5---5---5---5---5---5---5---5---5---5---5---5---|
E|-----------------------------------------------------------------|
 
G|-----------------------------------------------------------------|
D|-----------------------------------------------------------------|
A|-----------------------------------------------------------------|
E|-5-------------------------------5---5---5---5---5---5---5---5---|
 
 
[Bridge / Outro]
 
G|-----------------------------------------------------------------|
D|-0-------7------------/9---------0-------------------------------|
A|-----------------------------7---------0-0-------------4-----0---|
E|--------------------------------------(4)------------------------|
 
G|-----------------------------------------------------------------|
D|-0---------------------9----/11--0-------------------------------|
A|-------0-0-----------------------------0-0-------------4-----0---|
E|------(4)-----------------------------(4)------------------------|
 
G|-----------------------------------------------------------------|
D|-----------------------------------------------------------------|
A|-----4---4---4---4---4---4---4---4---4---4---4---4---4---4---4---|
E|-----------------------------------------------------------------|
 
G|-----------------------------------------------------------------|
D|-----------------------------------------------------------------|
A|-5---5---5---5---5---5---5---5---5---5---5---5---5---5---5---5---|
E|-----------------------------------------------------------------|
            

You can find more useful information here: See more here

Codeine – Washed Up Chords | Ver. 1
And searches related to this topic

#Codeine #Washed #Chords #Ver

Codeine – Washed Up Chords | Ver. 1

>>See more useful information provided by us here: https://australia.xemloibaihat.com.

Review the information related to the topic Codeine – Washed Up Chords | Ver. 1
again

Australia.xemloibaihat.com | Codeine – Washed Up Chords | Ver. 1


[Intro] bass comes in at (0:09)
 
G|---------------------------------|
D|-0-------------------------------|
A|---------------------------------| x4
E|-----------------4-----5-----2---|
 
 
[Verse 1]
 
G|-----------------------------------------------------------------|
D|-----------------------------------------------------------------|
A|-4---4---4---4---4---4---4---4---4-------4---4---4---4---4---4---|
E|-----------------------------------------------------------------|
 
G|-----------------------------------------------------------------|
D|-----------------------------------------------------------------|
A|-5---5---5---5---5---5---5---5---5---5---5---5---5---5---5---5---|
E|-----------------------------------------------------------------|
 
G|-----------------------------------------------------------------|
D|-----------------------------------------------------------------|
A|-----------------------------------------------------------------|
E|---------------------------------5---5---5---5---5---5---5---5---|
 
 
[Chorus]
 
G|---------------------------------|
D|-0-------------------------------|
A|---------------------------------| x3
E|-----------------4-----5-----2---|
 
G|---------------------------------|
D|-0-------------------------------|
A|---------------------------------|
E|-----------------4-------5---2---|
 
 
[Verse 2]
 
G|-----------------------------------------------------------------|
D|-----------------------------------------------------------------|
A|-4---4---4---4---4---4---4---4---4---4---4---4---4---4---4---4---|
E|-----------------------------------------------------------------|
 
G|-----------------------------------------------------------------|
D|-----------------------------------------------------------------|
A|-5---5---5---5---5---5---5---5---5---5---5---5---5---5---5---5---|
E|-----------------------------------------------------------------|
 
G|-----------------------------------------------------------------|
D|-----------------------------------------------------------------|
A|-----------------------------------------------------------------|
E|-5-------------------------------5---5---5---5---5---5---5---5---|
 
 
[Bridge / Outro]
 
G|-----------------------------------------------------------------|
D|-0-------7------------/9---------0-------------------------------|
A|-----------------------------7---------0-0-------------4-----0---|
E|--------------------------------------(4)------------------------|
 
G|-----------------------------------------------------------------|
D|-0---------------------9----/11--0-------------------------------|
A|-------0-0-----------------------------0-0-------------4-----0---|
E|------(4)-----------------------------(4)------------------------|
 
G|-----------------------------------------------------------------|
D|-----------------------------------------------------------------|
A|-----4---4---4---4---4---4---4---4---4---4---4---4---4---4---4---|
E|-----------------------------------------------------------------|
 
G|-----------------------------------------------------------------|
D|-----------------------------------------------------------------|
A|-5---5---5---5---5---5---5---5---5---5---5---5---5---5---5---5---|
E|-----------------------------------------------------------------|
            

Thank you very much for your interest in our article. We hope this information is of great value to you.

Leave a Reply

Your email address will not be published. Required fields are marked *