Deerhoof – Black Pitch Bass | Ver. 1 | The site that provides the most complete music chords

Are you looking for a topic Deerhoof – Black Pitch Bass | Ver. 1
right? If so, then you can watch it right here.

Deerhoof – Black Pitch Bass | Ver. 1
| You can find many other song chords here

Australia.xemloibaihat.com | Deerhoof – Black Pitch Bass | Ver. 1


[Intro]
G|-------------------------------------------|
D|-------13--------11--------9--------11-----|
A|---11---------9---------7--------9---------| x8
E|-------------------------------------------|
 
 
[Verse]
G|-------------------------------------------|
D|-------------------------------------------|
A|---11---------9--------7-------------------| x2
E|-------11--------9-------7-4---------------|
We’re gonna want you     We’re gonna want you
We’re gonna want you     24-7
 
G|-------------------------------------------|
D|-------13--------11--------9--------11-----|
A|---11---------9---------7--------9---------| x8
E|-------------------------------------------|
No no no   No no no
No no no   Let you know
 
G|-------------------------------------------|
D|-------------------------------------------|
A|---11---------9--------7-------------------| x2
E|-------11--------9-------7-4---------------|
We’re gonna want you     We’re gonna want you
We’re gonna want you     24-7
 
[Outro]
G|-------------------------------------------------------|
D|---------------------------------------------6---------|
A|---6-----4-----------------9-----6-----4---------------| x4
E|---------------4-----7-----------------------------7---|
We will let you know
We are just fine without your promises
We neither had it all nor shall we
            

You can find more useful information here: See more here

Deerhoof – Black Pitch Bass | Ver. 1
And searches related to this topic

#Deerhoof #Black #Pitch #Bass #Ver

Deerhoof – Black Pitch Bass | Ver. 1

>>See more useful information provided by us here: See here.

Review the information related to the topic Deerhoof – Black Pitch Bass | Ver. 1
again

Australia.xemloibaihat.com | Deerhoof – Black Pitch Bass | Ver. 1


[Intro]
G|-------------------------------------------|
D|-------13--------11--------9--------11-----|
A|---11---------9---------7--------9---------| x8
E|-------------------------------------------|
 
 
[Verse]
G|-------------------------------------------|
D|-------------------------------------------|
A|---11---------9--------7-------------------| x2
E|-------11--------9-------7-4---------------|
We’re gonna want you     We’re gonna want you
We’re gonna want you     24-7
 
G|-------------------------------------------|
D|-------13--------11--------9--------11-----|
A|---11---------9---------7--------9---------| x8
E|-------------------------------------------|
No no no   No no no
No no no   Let you know
 
G|-------------------------------------------|
D|-------------------------------------------|
A|---11---------9--------7-------------------| x2
E|-------11--------9-------7-4---------------|
We’re gonna want you     We’re gonna want you
We’re gonna want you     24-7
 
[Outro]
G|-------------------------------------------------------|
D|---------------------------------------------6---------|
A|---6-----4-----------------9-----6-----4---------------| x4
E|---------------4-----7-----------------------------7---|
We will let you know
We are just fine without your promises
We neither had it all nor shall we
            

Thank you very much for your interest in our article. We hope this information is of great value to you.

Leave a Reply

Your email address will not be published. Required fields are marked *