Deerhoof – Mirror Monster Chords | Ver. 1 | The site that provides the most complete music chords

Are you looking for a topic Deerhoof – Mirror Monster Chords | Ver. 1
right? If so, then you can watch it right here.

Deerhoof – Mirror Monster Chords | Ver. 1
| You can find many other song chords here

Australia.xemloibaihat.com | Deerhoof – Mirror Monster Chords | Ver. 1


[Verse]
We are riders in the
We are riders in the cavalry
 
G|------------------------------------------------------|
D|------------------------------------------------------|
A|------------------------------------------------------|
E|-------6----------------------------------------------|
And will soon
be the victims of our imitators
 
What did we expect?
 
We are riders in the
We are riders in the cavalry
 
G|------------------------------------------------------|
D|------------------------------------------------------|
A|------------------------------------------------------|
E|-------6----------------------------------------------|
And will soon
be the victims of our imitators
 
[Bridge]
G|---11-11--------------------------|
D|----------13-13--11---------------|
A|--------------------13-11---------| x6
E|--------------------------14-11---|
 
 
[Verse]
G|---11-11--------------------------|
D|----------13-13--11---------------|
A|--------------------13-11---------| x7
E|--------------------------14-11---|
We are riders in the
We are riders in the cavalry
And will soon be the victims of our imitators
            

You can find more useful information here: See more here

Deerhoof – Mirror Monster Chords | Ver. 1
And searches related to this topic

#Deerhoof #Mirror #Monster #Chords #Ver

Deerhoof – Mirror Monster Chords | Ver. 1

>>See more useful information provided by us here: More info here.

Review the information related to the topic Deerhoof – Mirror Monster Chords | Ver. 1
again

Australia.xemloibaihat.com | Deerhoof – Mirror Monster Chords | Ver. 1


[Verse]
We are riders in the
We are riders in the cavalry
 
G|------------------------------------------------------|
D|------------------------------------------------------|
A|------------------------------------------------------|
E|-------6----------------------------------------------|
And will soon
be the victims of our imitators
 
What did we expect?
 
We are riders in the
We are riders in the cavalry
 
G|------------------------------------------------------|
D|------------------------------------------------------|
A|------------------------------------------------------|
E|-------6----------------------------------------------|
And will soon
be the victims of our imitators
 
[Bridge]
G|---11-11--------------------------|
D|----------13-13--11---------------|
A|--------------------13-11---------| x6
E|--------------------------14-11---|
 
 
[Verse]
G|---11-11--------------------------|
D|----------13-13--11---------------|
A|--------------------13-11---------| x7
E|--------------------------14-11---|
We are riders in the
We are riders in the cavalry
And will soon be the victims of our imitators
            

Thank you very much for your interest in our article. We hope this information is of great value to you.

Leave a Reply

Your email address will not be published. Required fields are marked *