Deerhoof – No One Asked To Dance Bass | Ver. 1 | The site that provides the most complete music chords

Are you looking for a topic Deerhoof – No One Asked To Dance Bass | Ver. 1
right? If so, then you can watch it right here.

Deerhoof – No One Asked To Dance Bass | Ver. 1
| You can find many other song chords here

Australia.xemloibaihat.com | Deerhoof – No One Asked To Dance Bass | Ver. 1


[Verse] (live part)
G|-----------------------------------------------------------------|
D|-----------------------------------------------------------------|
A|-------8---7----------------8---7------------8---------5---------|
E|---6-----------5--------6-----------5--------------8-------5-----|
Walk out the window
Look through the door
Dance all night, ask for more
 
Edward is happy
Edward is sad
And what good
It was love
 
 
[Chorus]
G|--------------------------------------------------|
D|--------------------------------------------------|
A|---5----------------------------------1-----0-----|
E|--------3-----3-----1-----1-----0-----------------|
Ah, ah, ah, ah, ah, ah, ah, ah
 
 
[Verse]
G|-------------------------------------------------------|
D|---------------5-7-------------------------------------|
A|---7-8-5-7---------5-------8-----8-----7-----5---------|
E|---------------------5-------------5-8-------------5---|                   
 
 
Walk out the window
Look through the door
Dance all night, ask for more
            

You can find more useful information here: See more

Deerhoof – No One Asked To Dance Bass | Ver. 1
And searches related to this topic

#Deerhoof #Asked #Dance #Bass #Ver

Deerhoof – No One Asked To Dance Bass | Ver. 1

>>See more useful information provided by us here: https://australia.xemloibaihat.com/.

Review the information related to the topic Deerhoof – No One Asked To Dance Bass | Ver. 1
again

Australia.xemloibaihat.com | Deerhoof – No One Asked To Dance Bass | Ver. 1


[Verse] (live part)
G|-----------------------------------------------------------------|
D|-----------------------------------------------------------------|
A|-------8---7----------------8---7------------8---------5---------|
E|---6-----------5--------6-----------5--------------8-------5-----|
Walk out the window
Look through the door
Dance all night, ask for more
 
Edward is happy
Edward is sad
And what good
It was love
 
 
[Chorus]
G|--------------------------------------------------|
D|--------------------------------------------------|
A|---5----------------------------------1-----0-----|
E|--------3-----3-----1-----1-----0-----------------|
Ah, ah, ah, ah, ah, ah, ah, ah
 
 
[Verse]
G|-------------------------------------------------------|
D|---------------5-7-------------------------------------|
A|---7-8-5-7---------5-------8-----8-----7-----5---------|
E|---------------------5-------------5-8-------------5---|                   
 
 
Walk out the window
Look through the door
Dance all night, ask for more
            

Thank you very much for your interest in our article. We hope this information is of great value to you.

Leave a Reply

Your email address will not be published. Required fields are marked *