Deerhoof – Secret Mobilization Bass | Ver. 1 | The site that provides the most complete music chords

Are you looking for a topic Deerhoof – Secret Mobilization Bass | Ver. 1
right? If so, then you can watch it right here.

Deerhoof – Secret Mobilization Bass | Ver. 1
| You can find many other song chords here

Australia.xemloibaihat.com | Deerhoof – Secret Mobilization Bass | Ver. 1


[Intro]
G|---------------------------------------|
D|---------------------------------------|
A|---------------------------------------|
E|---7---7---7---7---7---7---7---7---7---|
 
G|---------------------------------------|
D|---------------------------------------|
A|---------------------------------------|
E|---7---7---7---7---7---7---7---7-------|
 
 
[Pre-Verse]
G|-----------------------------------------------------------------|
D|---------------------------3--------------------7---5--------7---|
A|-------------9---7-------------5-2------5--7-8---------2-5-------| x2
E|---7---9-10--------4-5-7-----4-------2---------------5-----------|
 
 
[Verse]
This is not based, this is not based
This is not based on a true story
 
G|---------------------------------------------------|
D|---------------------------------------------------|
A|---------------------------------------------------|
E|---7---7---7---7---7---7---7---7---7---7---7---7---|
 
G|---------------------------------------------------------------------|
D|---------9--7--------------------------------------------------7-9---| behind synth part
A|--------------9----------------7-9-------9-----7-9-----------9-------| x3
E|---7------------10-7-----10--7-----7--------10-----7-----10----------|
Bye, bye, don't cry
Stand by, stand by
 
 
[Bridge]
G|-----------------------------------------------------------------|
D|---------------------------3--------------------7---5--------7---|
A|-------------9---7-------------5-2------5--7-8---------2-5-------| x2
E|---7---9-10--------4-5-7-----4-------2---------------5-----------|
Na, na, na, na, na, na, na, na, na
 
 
[Outro]
G|------------------------------------------------------|
D|------------------------------------------------------|
A|---------------9--9--------10--10-------7---7--7--7---| x3
E|---9--9--9--9-------9---9---------9---9---------------|
            

You can find more useful information here: Australia.xemloibaihat.com/chord

Deerhoof – Secret Mobilization Bass | Ver. 1
And searches related to this topic

#Deerhoof #Secret #Mobilization #Bass #Ver

Deerhoof – Secret Mobilization Bass | Ver. 1

>>See more useful information provided by us here: See more here.

Review the information related to the topic Deerhoof – Secret Mobilization Bass | Ver. 1
again

Australia.xemloibaihat.com | Deerhoof – Secret Mobilization Bass | Ver. 1


[Intro]
G|---------------------------------------|
D|---------------------------------------|
A|---------------------------------------|
E|---7---7---7---7---7---7---7---7---7---|
 
G|---------------------------------------|
D|---------------------------------------|
A|---------------------------------------|
E|---7---7---7---7---7---7---7---7-------|
 
 
[Pre-Verse]
G|-----------------------------------------------------------------|
D|---------------------------3--------------------7---5--------7---|
A|-------------9---7-------------5-2------5--7-8---------2-5-------| x2
E|---7---9-10--------4-5-7-----4-------2---------------5-----------|
 
 
[Verse]
This is not based, this is not based
This is not based on a true story
 
G|---------------------------------------------------|
D|---------------------------------------------------|
A|---------------------------------------------------|
E|---7---7---7---7---7---7---7---7---7---7---7---7---|
 
G|---------------------------------------------------------------------|
D|---------9--7--------------------------------------------------7-9---| behind synth part
A|--------------9----------------7-9-------9-----7-9-----------9-------| x3
E|---7------------10-7-----10--7-----7--------10-----7-----10----------|
Bye, bye, don't cry
Stand by, stand by
 
 
[Bridge]
G|-----------------------------------------------------------------|
D|---------------------------3--------------------7---5--------7---|
A|-------------9---7-------------5-2------5--7-8---------2-5-------| x2
E|---7---9-10--------4-5-7-----4-------2---------------5-----------|
Na, na, na, na, na, na, na, na, na
 
 
[Outro]
G|------------------------------------------------------|
D|------------------------------------------------------|
A|---------------9--9--------10--10-------7---7--7--7---| x3
E|---9--9--9--9-------9---9---------9---9---------------|
            

Thank you very much for your interest in our article. We hope this information is of great value to you.

Leave a Reply

Your email address will not be published. Required fields are marked *