Home » Drake – Fake Love Tabs | Ver. 3 | The site that provides the most complete music chords

Drake – Fake Love Tabs | Ver. 3 | The site that provides the most complete music chords

by Andy Frank

Are you looking for a topic Drake – Fake Love Tabs | Ver. 3
right? If so, then you can watch it right here.

Drake – Fake Love Tabs | Ver. 3
| You can find many other song chords here

Australia.xemloibaihat.com | Drake – Fake Love Tabs | Ver. 3


[Intro]
 
e|----------------------------------------------|
B|---/3-1-0------------3----0-------------------|
G|-0--------------------0----0------------------|
D|-2---------7-5-7-9----------------------------|
A|-0---------6------7--2------------------------|
E|-----------7------8--------3------------------|
 
e|---------------------------------------------|
B|---/3-1-0------------------------------------|
G|-0-------------------------------------------|
D|-2---------7-5-7-9---------------------------|
A|-0---------6------7--------------------------|
E|-----------7------8--------------------------|
 
[Chorus]
 
e|-------------------------------------------------------------------|
B|-----0-0-0---0------0--0-----0--0-0--0--0--0----0h1-0--------------|
G|-2-2-2-2--2----------2--------2-----2--2--2------------2-0---------|
D|----------------2-2-------2-2------------------2-2-----------------|
A|-2------------0-----2-------------------------2--------------------|
E|-------3--------------------------3-----------------3--------------|
 
e|------------------------------------------------------|
B|------------0h1-0---------------------0--0--0---------|
G|-0h2-0-----------2-0—0h2-0----2-2--2--2--2------------|
D|---------7--------------------------------------------|
A|-0-------6--------------------------------2-----------|
E|--------/7--------------0------0--3-------------------|
 
e|-------------------------------------------------------|
B|-0----0--0-----0--0-0-0--0--0----0h1-0-----------------|
G|--------2--------2----2--2--2------------2-0-----------|
D|--2-2------2-2-----------------2-2---------------------|
A|-0---2------------3-----------2------------------------|
E|------------------------------------3------------------|
 
e|---------------------------------------------|
B|------------0h1-0---------------3--0---------|
G|-0h2-0-----------2-0—0h2-0--0--0-------------|
D|---------7-----------------------------------|
A|-0-------6-------------3------3-2------------|
E|--------/7--------------------------3--------|
 
[Verse 1]
 
e|-------------------------------------------------------------------------------|
B|-3-3-3-3-3---3-3-3-3-3-0-0--/3-1-0---------------3-1-0-------------------------|
G|-----------0-0-------------------------0h2-2-0h2-2-------0h2-2-0h2-2-----------|
D|-------------------------------------------------------------------------------|
A|-------0-------------2-----------------3--------------------3-------------2----|
E|-------------------------------------------------------------------------------|
 
e|-------------------------------------------------------0---0--------|
B|-3-3-3-3/5-0--3-3-3-3/5-0--3-3-3-3-0-3-3-0-3-3----------------------|
G|--------------0--------------0-------------------------0-0-0--------|
D|--------------------------------------------------------------------|
A|----0---------------2--------------3-------------2------------------|
E|---------------------------------------------------------3----------|
 
[Verse 2]
 
e|------------------------------------------------------------------------------|
B|--1----------0----0-----------------------------------------------------------|
G|--0------2-2-0-2—0h2-2-0-------0-0-----2-2-0--0-0----2-2-0-0-0--2-2-0---------|
D|--2------1-----------------------9-----0h2-------9----0h2------9------0h2-----|
A|-0---0h2---------3-------------10---------------10-------------10-------------|
E|------------------------------/7-------------------8------------------8-------|
 
e|-----------------------------------------------------------------------------|
B|---1-----0-0---------------------0-0-----------------1-----------------------|
G|---0---------0-0----0h2-0----------0-0----0h2-0---0-------0-0----0h2-0-------|
D|---2-------------0-0--------2-----------0-0----------2---9-9----0-0----------|
A|-0---0h2--------------------2----------------------0-----10------------------|
E|----------------------------0--0-3------------------------7------------------|
 
e|--------------------------------------------------------------------------|
B|--------------------------------------------------------------------------|
G|---------0-0--------------0h2-0--/4-4-0-0----------------0h2-0------------|
D|-----9-9----0-0-0-0-0-0-------------------0-0-0-0-0-0-0-------2-----------|
A|----10---------------------------0---------------------------------2------|
E|-/8-------------------3---------------------7----------------------0------|
 
[Chorus]
 
e|-------------------------------------------------------------------|
B|-----0-0-0---0------0--0-----0--0-0--0--0--0----0h1-0-------------|
G|-2-2-2-2--2----------2--------2-----2--2--2------------2-0--------|
D|----------------2-2-------2-2------------------2-2----------------|
A|-2------------0-----2-------------------------2-------------------|
E|-------3--------------------------3-----------------3-------------|
 
e|-------------------------------------------------------|
B|------------0h1-0---------------------0--0--0----------|
G|-0h2-0-----------2-0—0h2-0----2-2--2--2--2-------------|
D|---------7---------------------------------------------|
A|-0-------6--------------3---------2--------------------|
E|--------/7--------------------------------3------------|
 
e|-----------------------------------------------------------------------------|
B|-0----------------------------------------------------------1—0h1-0----------|
G|------0h2--------------------------------------------------0--------2-0-2-0--|
D|--2-2-----2h4-2-0-0-------0-0-0-0h2-2-2-0h2-0-------2-7----------------------|
A|-0--------2-----------2-2-2-------3----------------3-2-0---6-----------------|
E|--------------------------------------------------------------/7----------0--|
 
e|-------2/3-------------------------------------------------|
B|------------1------1-0--0-3-1----1-0-0--3------------------|
G|-----0-----2—0h2------0---2--2-----0--0--------------------|
D|--------------1------------------1-------------------------|
A|-----------0--2--------------0--2--------------------------|
E|-0-3-----------------0--3-------------0--3-----------------|
            

You can find more useful information here: See more

Drake – Fake Love Tabs | Ver. 3
And searches related to this topic

#Drake #Fake #Love #Tabs #Ver

Drake – Fake Love Tabs | Ver. 3

>>See more useful information provided by us here: See here.

Review the information related to the topic Drake – Fake Love Tabs | Ver. 3
again

Australia.xemloibaihat.com | Drake – Fake Love Tabs | Ver. 3


[Intro]
 
e|----------------------------------------------|
B|---/3-1-0------------3----0-------------------|
G|-0--------------------0----0------------------|
D|-2---------7-5-7-9----------------------------|
A|-0---------6------7--2------------------------|
E|-----------7------8--------3------------------|
 
e|---------------------------------------------|
B|---/3-1-0------------------------------------|
G|-0-------------------------------------------|
D|-2---------7-5-7-9---------------------------|
A|-0---------6------7--------------------------|
E|-----------7------8--------------------------|
 
[Chorus]
 
e|-------------------------------------------------------------------|
B|-----0-0-0---0------0--0-----0--0-0--0--0--0----0h1-0--------------|
G|-2-2-2-2--2----------2--------2-----2--2--2------------2-0---------|
D|----------------2-2-------2-2------------------2-2-----------------|
A|-2------------0-----2-------------------------2--------------------|
E|-------3--------------------------3-----------------3--------------|
 
e|------------------------------------------------------|
B|------------0h1-0---------------------0--0--0---------|
G|-0h2-0-----------2-0—0h2-0----2-2--2--2--2------------|
D|---------7--------------------------------------------|
A|-0-------6--------------------------------2-----------|
E|--------/7--------------0------0--3-------------------|
 
e|-------------------------------------------------------|
B|-0----0--0-----0--0-0-0--0--0----0h1-0-----------------|
G|--------2--------2----2--2--2------------2-0-----------|
D|--2-2------2-2-----------------2-2---------------------|
A|-0---2------------3-----------2------------------------|
E|------------------------------------3------------------|
 
e|---------------------------------------------|
B|------------0h1-0---------------3--0---------|
G|-0h2-0-----------2-0—0h2-0--0--0-------------|
D|---------7-----------------------------------|
A|-0-------6-------------3------3-2------------|
E|--------/7--------------------------3--------|
 
[Verse 1]
 
e|-------------------------------------------------------------------------------|
B|-3-3-3-3-3---3-3-3-3-3-0-0--/3-1-0---------------3-1-0-------------------------|
G|-----------0-0-------------------------0h2-2-0h2-2-------0h2-2-0h2-2-----------|
D|-------------------------------------------------------------------------------|
A|-------0-------------2-----------------3--------------------3-------------2----|
E|-------------------------------------------------------------------------------|
 
e|-------------------------------------------------------0---0--------|
B|-3-3-3-3/5-0--3-3-3-3/5-0--3-3-3-3-0-3-3-0-3-3----------------------|
G|--------------0--------------0-------------------------0-0-0--------|
D|--------------------------------------------------------------------|
A|----0---------------2--------------3-------------2------------------|
E|---------------------------------------------------------3----------|
 
[Verse 2]
 
e|------------------------------------------------------------------------------|
B|--1----------0----0-----------------------------------------------------------|
G|--0------2-2-0-2—0h2-2-0-------0-0-----2-2-0--0-0----2-2-0-0-0--2-2-0---------|
D|--2------1-----------------------9-----0h2-------9----0h2------9------0h2-----|
A|-0---0h2---------3-------------10---------------10-------------10-------------|
E|------------------------------/7-------------------8------------------8-------|
 
e|-----------------------------------------------------------------------------|
B|---1-----0-0---------------------0-0-----------------1-----------------------|
G|---0---------0-0----0h2-0----------0-0----0h2-0---0-------0-0----0h2-0-------|
D|---2-------------0-0--------2-----------0-0----------2---9-9----0-0----------|
A|-0---0h2--------------------2----------------------0-----10------------------|
E|----------------------------0--0-3------------------------7------------------|
 
e|--------------------------------------------------------------------------|
B|--------------------------------------------------------------------------|
G|---------0-0--------------0h2-0--/4-4-0-0----------------0h2-0------------|
D|-----9-9----0-0-0-0-0-0-------------------0-0-0-0-0-0-0-------2-----------|
A|----10---------------------------0---------------------------------2------|
E|-/8-------------------3---------------------7----------------------0------|
 
[Chorus]
 
e|-------------------------------------------------------------------|
B|-----0-0-0---0------0--0-----0--0-0--0--0--0----0h1-0-------------|
G|-2-2-2-2--2----------2--------2-----2--2--2------------2-0--------|
D|----------------2-2-------2-2------------------2-2----------------|
A|-2------------0-----2-------------------------2-------------------|
E|-------3--------------------------3-----------------3-------------|
 
e|-------------------------------------------------------|
B|------------0h1-0---------------------0--0--0----------|
G|-0h2-0-----------2-0—0h2-0----2-2--2--2--2-------------|
D|---------7---------------------------------------------|
A|-0-------6--------------3---------2--------------------|
E|--------/7--------------------------------3------------|
 
e|-----------------------------------------------------------------------------|
B|-0----------------------------------------------------------1—0h1-0----------|
G|------0h2--------------------------------------------------0--------2-0-2-0--|
D|--2-2-----2h4-2-0-0-------0-0-0-0h2-2-2-0h2-0-------2-7----------------------|
A|-0--------2-----------2-2-2-------3----------------3-2-0---6-----------------|
E|--------------------------------------------------------------/7----------0--|
 
e|-------2/3-------------------------------------------------|
B|------------1------1-0--0-3-1----1-0-0--3------------------|
G|-----0-----2—0h2------0---2--2-----0--0--------------------|
D|--------------1------------------1-------------------------|
A|-----------0--2--------------0--2--------------------------|
E|-0-3-----------------0--3-------------0--3-----------------|
            

Thank you very much for your interest in our article. We hope this information is of great value to you.

READ  Balthazar - More Ways Chords | Ver. 1 | The site that provides the most complete music chords

You may also like

Leave a Comment