Home » Elton John – Rocket Man Tabs | Ver. 1 | The site that provides the most complete music chords

Elton John – Rocket Man Tabs | Ver. 1 | The site that provides the most complete music chords

Are you looking for a topic Elton John – Rocket Man Tabs | Ver. 1
right? If so, then you can watch it right here.

Elton John – Rocket Man Tabs | Ver. 1
| You can find many other song chords here

Australia.xemloibaihat.com | Elton John – Rocket Man Tabs | Ver. 1


[Verse 1]
 
e|----0-------------------------------------------------0-------------------------|
B|----0-------------------------------------------------0----0--------------------|
G|----0----------0-----0----------0--------0--2h-2------2------2------------------|
D|----0-------2-----2----------2-----2-----0--2h-2------2-------------------------|
A|----2------------------------------------0-------0----0----------0h2------------|
E|----0----------------0----------------------------------------------------------| 
 
e|----0-------------------------------------------------0-------------------------|
B|----0-------------------------------------------------0----0--------------------|
G|----0-------0-------0------------0--------0--2h-------2------2------------------|
D|----0-----------2------------2-------2----0--2h-------2-------------------------|
A|----2-------------------------------------0-----------0-----------0h2-----------|
E|----0---------------0-----------------------------------------------------------| 
 
e|--------------------------------3-------------------0---------------------------|
B|----------------------1---3-----0--------1-3h-1p----1---------------------------|
G|----0-----------0--0------0--0-------0-----------2--2-----0---------------------|
D|----2-----2--2------------0-------------------------2-----0---2----0h2p0-0------|
A|----3---------------------2--------------0----------0---------------------------|
E|----------------------------------------------------------3--------2------------| 
 
e|-----------------------------------------------2-------3p2------0h2p0-----------|
B|------------3------------------3---------------3------------3----------3--------|
G|------------2------------------2------------2--2-----------------------2--------|
D|----------0-----------------0------------0-----0----0------------------0--------|
A|--------------------------0---------0h2-----------------------------------------|
E|----2---------------2h3---------------------------------------------------------| 
 
 
[Chorus]
 
e|---------------------------------------------------------------------------------|
B|------------------0-0----1p0----------0----------------------1p0----------0------|
G|----0--------0-0---------0--------2------0---0-------0--2----0--2p0---2-------0--|
D|----0---0-0--------------0--------0----------2-----2---------2-------------------|
A|---------------------------------------------3----------3----3--------3----------|
E|----3--------------------3-------------------------------------------------------| 
 
e|------------------------------------------3--0-----------------------------------|
B|----------------1p0-----------0-----------1--1-------------------0---------------|
G|----0-----0h2---0-----2p0h2-------0-------0--0--------0----52---2---------2-----|
D|-------0--------------0-----------2----------2--------0----52---2------2--------|
A|----------------------------------3----------3----2p0-2----0-----0---0------2----|
E|----3-----3-----------3-------------------------------3--------------------------| 
 
e|-------------------------------------------3----------------------------------------------------|
B|----1p0h1--------1p0h1p0h-1--3---3---------0---0------1p0h1------1p0h1p0h-1--3----3-------------|
G|----0-----0------0--------0---------0------0-----0----0-----0----0--------0-----------0----(0)--|
D|----2-----2---------------2------------0---0-------0--2-----2-------------2--------------0------| Repeat 1x
A|----3-------3----3------------------------------------3-------3--3------------------------------|
E|---------------------------------3------------------------------------------------3-------------|
 
 
 
[Verse 2]
 
e|----0-------------------------------------------------0-------------------------|
B|----0-------------------------------------------------0----0--------------------|
G|----0----------0-----0----------0--------0--2h-2------2------2------------------|
D|----0-------2-----2----------2-----2-----0--2h-2------2-------------------------|
A|----2------------------------------------0-------0----0----------0h2------------|
E|----0----------------0----------------------------------------------------------| 
 
e|----0-------------------------------------------------0-------------------------|
B|----0-------------------------------------------------0----0--------------------|
G|----0-------0-------0------------0--------0--2h-------2------2------------------|
D|----0-----------2------------2-------2----0--2h-------2-------------------------|
A|----2-------------------------------------0-----------0-----------0h2-----------|
E|----0---------------0-----------------------------------------------------------| 
 
e|--------------------------------3-------------------0---------------------------|
B|----------------------1---3-----0--------1-3h-1p----1---------------------------|
G|----0-----------0--0------0--0-------0-----------2--2-----0---------------------|
D|----2-----2--2------------0-------------------------2-----0---2----0h2p0-0------|
A|----3---------------------2--------------0----------0---------------------------|
E|----------------------------------------------------------3--------2------------| 
 
e|-----------------------------------------------2-------3p2------0h2p0-----------|
B|------------3------------------3---------------3------------3----------3--------|
G|------------2------------------2------------2--2-----------------------2--------|
D|----------0-----------------0------------0-----0----0------------------0--------|
A|--------------------------0---------0h2-----------------------------------------|
E|----2---------------2h3---------------------------------------------------------| 
 
 
[Chorus]
 
e|---------------------------------------------------------------------------------|
B|------------------0-0----1p0----------0----------------------1p0----------0------|
G|----0--------0-0---------0--------2------0---0-------0--2----0--2p0---2-------0--|
D|----0---0-0--------------0--------0----------2-----2---------2-------------------|
A|---------------------------------------------3----------3----3--------3----------|
E|----3--------------------3-------------------------------------------------------| 
 
e|------------------------------------------3--0-----------------------------------|
B|----------------1p0-----------0-----------1--1-------------------0---------------|
G|----0-----0h2---0-----2p0h2-------0-------0--0--------0----52---2---------2-----|
D|-------0--------------0-----------2----------2--------0----52---2------2--------|
A|----------------------------------3----------3----2p0-2----0-----0---0------2----|
E|----3-----3-----------3-------------------------------3--------------------------| 
 
e|-------------------------------------------3----------------------------------------------------|
B|----1p0h1--------1p0h1p0h-1--3---3---------0---0------1p0h1------1p0h1p0h-1--3----3-------------|
G|----0-----0------0--------0---------0------0-----0----0-----0----0--------0-----------0----(0)--|
D|----2-----2---------------2------------0---0-------0--2-----2-------------2--------------0------| Repeat 1x
A|----3-------3----3------------------------------------3-------3--3------------------------------|
E|---------------------------------3------------------------------------------------3-------------|
 
 
[Outro]
 
e|-------------------------------------------3---------------------------------------------7-------|
B|----1p0h1--------1p0h1p0h-1--3---3---------0---0------1p0h1------1p0h1p0h-1--3----3--------8-----|
G|----0-----0------0--------0---------0------0-----0----0-----0----0--------0-----------0------12f-|
D|----2-----2---------------2------------0---0-------0--2-----2-------------2----------------------|
A|----3-------3----3------------------------------------3-------3--3-------------------------------|
E|---------------------------------3------------------------------------------------3--------------|
 
e|-------------------------------------------3---------------------------------------------8-73---|
B|----1p0h1--------1p0h1p0h-1--3---3---------0---0------1p0h1------1p0h1p0h-1--3----3--------------|
G|----0-----0------0--------0---------0------0-----0----0-----0----0--------0-----------0----------|
D|----2-----2---------------2------------0---0-------0--2-----2-------------2----------------------|
A|----3-------3----3------------------------------------3-------3--3-------------------------------|
E|---------------------------------3------------------------------------------------3--------------|
 
e|-------------------------------------------3---------------------------------------------7-------|
B|----1p0h1--------1p0h1p0h-1--3---3---------0---0------1p0h1------1p0h1p0h-1--3----3--------8-----|
G|----0-----0------0--------0---------0------0-----0----0-----0----0--------0-----------0------12f-|
D|----2-----2---------------2------------0---0-------0--2-----2-------------2----------------------|
A|----3-------3----3------------------------------------3-------3--3-------------------------------|
E|---------------------------------3------------------------------------------------3--------------|
            

See also  Panic At The Disco - Nine In The Afternoon Chords | The site that provides the most complete music chords

You can find more useful information here: Australia.xemloibaihat.com/chord

Elton John – Rocket Man Tabs | Ver. 1
And searches related to this topic

#Elton #John #Rocket #Man #Tabs #Ver

See also  Taylor Swift - You Need To Calm Down Chords | The site that provides the most complete music chords

Elton John – Rocket Man Tabs | Ver. 1

>>See more useful information provided by us here: View here.

Review the information related to the topic Elton John – Rocket Man Tabs | Ver. 1
again

Australia.xemloibaihat.com | Elton John – Rocket Man Tabs | Ver. 1


[Verse 1]
 
e|----0-------------------------------------------------0-------------------------|
B|----0-------------------------------------------------0----0--------------------|
G|----0----------0-----0----------0--------0--2h-2------2------2------------------|
D|----0-------2-----2----------2-----2-----0--2h-2------2-------------------------|
A|----2------------------------------------0-------0----0----------0h2------------|
E|----0----------------0----------------------------------------------------------| 
 
e|----0-------------------------------------------------0-------------------------|
B|----0-------------------------------------------------0----0--------------------|
G|----0-------0-------0------------0--------0--2h-------2------2------------------|
D|----0-----------2------------2-------2----0--2h-------2-------------------------|
A|----2-------------------------------------0-----------0-----------0h2-----------|
E|----0---------------0-----------------------------------------------------------| 
 
e|--------------------------------3-------------------0---------------------------|
B|----------------------1---3-----0--------1-3h-1p----1---------------------------|
G|----0-----------0--0------0--0-------0-----------2--2-----0---------------------|
D|----2-----2--2------------0-------------------------2-----0---2----0h2p0-0------|
A|----3---------------------2--------------0----------0---------------------------|
E|----------------------------------------------------------3--------2------------| 
 
e|-----------------------------------------------2-------3p2------0h2p0-----------|
B|------------3------------------3---------------3------------3----------3--------|
G|------------2------------------2------------2--2-----------------------2--------|
D|----------0-----------------0------------0-----0----0------------------0--------|
A|--------------------------0---------0h2-----------------------------------------|
E|----2---------------2h3---------------------------------------------------------| 
 
 
[Chorus]
 
e|---------------------------------------------------------------------------------|
B|------------------0-0----1p0----------0----------------------1p0----------0------|
G|----0--------0-0---------0--------2------0---0-------0--2----0--2p0---2-------0--|
D|----0---0-0--------------0--------0----------2-----2---------2-------------------|
A|---------------------------------------------3----------3----3--------3----------|
E|----3--------------------3-------------------------------------------------------| 
 
e|------------------------------------------3--0-----------------------------------|
B|----------------1p0-----------0-----------1--1-------------------0---------------|
G|----0-----0h2---0-----2p0h2-------0-------0--0--------0----52---2---------2-----|
D|-------0--------------0-----------2----------2--------0----52---2------2--------|
A|----------------------------------3----------3----2p0-2----0-----0---0------2----|
E|----3-----3-----------3-------------------------------3--------------------------| 
 
e|-------------------------------------------3----------------------------------------------------|
B|----1p0h1--------1p0h1p0h-1--3---3---------0---0------1p0h1------1p0h1p0h-1--3----3-------------|
G|----0-----0------0--------0---------0------0-----0----0-----0----0--------0-----------0----(0)--|
D|----2-----2---------------2------------0---0-------0--2-----2-------------2--------------0------| Repeat 1x
A|----3-------3----3------------------------------------3-------3--3------------------------------|
E|---------------------------------3------------------------------------------------3-------------|
 
 
 
[Verse 2]
 
e|----0-------------------------------------------------0-------------------------|
B|----0-------------------------------------------------0----0--------------------|
G|----0----------0-----0----------0--------0--2h-2------2------2------------------|
D|----0-------2-----2----------2-----2-----0--2h-2------2-------------------------|
A|----2------------------------------------0-------0----0----------0h2------------|
E|----0----------------0----------------------------------------------------------| 
 
e|----0-------------------------------------------------0-------------------------|
B|----0-------------------------------------------------0----0--------------------|
G|----0-------0-------0------------0--------0--2h-------2------2------------------|
D|----0-----------2------------2-------2----0--2h-------2-------------------------|
A|----2-------------------------------------0-----------0-----------0h2-----------|
E|----0---------------0-----------------------------------------------------------| 
 
e|--------------------------------3-------------------0---------------------------|
B|----------------------1---3-----0--------1-3h-1p----1---------------------------|
G|----0-----------0--0------0--0-------0-----------2--2-----0---------------------|
D|----2-----2--2------------0-------------------------2-----0---2----0h2p0-0------|
A|----3---------------------2--------------0----------0---------------------------|
E|----------------------------------------------------------3--------2------------| 
 
e|-----------------------------------------------2-------3p2------0h2p0-----------|
B|------------3------------------3---------------3------------3----------3--------|
G|------------2------------------2------------2--2-----------------------2--------|
D|----------0-----------------0------------0-----0----0------------------0--------|
A|--------------------------0---------0h2-----------------------------------------|
E|----2---------------2h3---------------------------------------------------------| 
 
 
[Chorus]
 
e|---------------------------------------------------------------------------------|
B|------------------0-0----1p0----------0----------------------1p0----------0------|
G|----0--------0-0---------0--------2------0---0-------0--2----0--2p0---2-------0--|
D|----0---0-0--------------0--------0----------2-----2---------2-------------------|
A|---------------------------------------------3----------3----3--------3----------|
E|----3--------------------3-------------------------------------------------------| 
 
e|------------------------------------------3--0-----------------------------------|
B|----------------1p0-----------0-----------1--1-------------------0---------------|
G|----0-----0h2---0-----2p0h2-------0-------0--0--------0----52---2---------2-----|
D|-------0--------------0-----------2----------2--------0----52---2------2--------|
A|----------------------------------3----------3----2p0-2----0-----0---0------2----|
E|----3-----3-----------3-------------------------------3--------------------------| 
 
e|-------------------------------------------3----------------------------------------------------|
B|----1p0h1--------1p0h1p0h-1--3---3---------0---0------1p0h1------1p0h1p0h-1--3----3-------------|
G|----0-----0------0--------0---------0------0-----0----0-----0----0--------0-----------0----(0)--|
D|----2-----2---------------2------------0---0-------0--2-----2-------------2--------------0------| Repeat 1x
A|----3-------3----3------------------------------------3-------3--3------------------------------|
E|---------------------------------3------------------------------------------------3-------------|
 
 
[Outro]
 
e|-------------------------------------------3---------------------------------------------7-------|
B|----1p0h1--------1p0h1p0h-1--3---3---------0---0------1p0h1------1p0h1p0h-1--3----3--------8-----|
G|----0-----0------0--------0---------0------0-----0----0-----0----0--------0-----------0------12f-|
D|----2-----2---------------2------------0---0-------0--2-----2-------------2----------------------|
A|----3-------3----3------------------------------------3-------3--3-------------------------------|
E|---------------------------------3------------------------------------------------3--------------|
 
e|-------------------------------------------3---------------------------------------------8-73---|
B|----1p0h1--------1p0h1p0h-1--3---3---------0---0------1p0h1------1p0h1p0h-1--3----3--------------|
G|----0-----0------0--------0---------0------0-----0----0-----0----0--------0-----------0----------|
D|----2-----2---------------2------------0---0-------0--2-----2-------------2----------------------|
A|----3-------3----3------------------------------------3-------3--3-------------------------------|
E|---------------------------------3------------------------------------------------3--------------|
 
e|-------------------------------------------3---------------------------------------------7-------|
B|----1p0h1--------1p0h1p0h-1--3---3---------0---0------1p0h1------1p0h1p0h-1--3----3--------8-----|
G|----0-----0------0--------0---------0------0-----0----0-----0----0--------0-----------0------12f-|
D|----2-----2---------------2------------0---0-------0--2-----2-------------2----------------------|
A|----3-------3----3------------------------------------3-------3--3-------------------------------|
E|---------------------------------3------------------------------------------------3--------------|
            

See also  Francesco Renga - Quando Trovo Te Chords | Ver. 1 | The site that provides the most complete music chords

Thank you very much for your interest in our article. We hope this information is of great value to you.

Leave a Reply

Your email address will not be published.