Foo Fighters – Run Chords | The site that provides the most complete music chords

Are you looking for a topic Foo Fighters – Run Chords right? If so, then you can watch it right here.

Foo Fighters – Run Chords | You can find many other song chords here

Foo Fighters - Run Chords

[Intro]

    C            Am          E            D
e|---------10----------10----------10-----------10-----|
B|-------8---8-------8---8-------8----8-------7---7-8--|
G|-----0-------0---9-------9---9--------9---7----------|
D|--10-----------7------------------------0------------| x7
A|---------------------------7-------------------------|
E|-----------------------------------------------------|

 C      Am  Em                      D
Wake up,    run for your life with me
 C      Am  Em                     D
Wake up,    run for your life with me
C   Am     Em      D
In another perfect life
C   Am     Em       D
In another perfect light
  C    Am   Em   D
We run,   we run
  C   
We run


[Verse 1]

    F E          F E          F E          F E
e|------------------------------------------------------|
B|------------------------------------------------------|
G|------------------------------------------------------|
D|------------------------------------------------------| x12
A|------------------------------------------------------|
E|--1p0--0-0--0--1p0--0-0--0--1p0--0-0--0--1p0--0-0--0--|

F E              F E       F E      F E         F E       F E       F E      F E
    The rats are on parade, another mad charade, what you gonna do?
F E                F E          F E   F E            F E       F E       F E      F E
    The hounds are on the chase, everything's erased, what you gonna do?
F E             F E             F E      F E         F E     F E       F E      F E
    I need some room to breathe, you can stay asleep, if you wanted to
F E                 F E           F E      F E         F E     F E       F E      F E
    They say that's nothings free, you can run with me, if you wanted to
C  D5  G
F E              F E         F E     F E         
    Yeah you can run with me, if you wanted to
C  D5  G


[Pre-Chorus 1]
E       D5   A/C#       C 
  Before the time runs out
A         A#            E 
  There's somewhere to run


[Chorus 1]
 C      Am  Em                      D
Wake up,    run for your life with me
 C      Am  Em                     D
Wake up,    run for your life with me
C   Am     Em      D
In another perfect life
C   Am     Em       D
In another perfect light
  C    Am   Em   D
We run,   we run
  C    Am
We run
E5  D5  E5  D5  E5  D5  E5
Run


[Verse 2]
F E            F E             F E      F E            F E       F E        F E      F E
    We are the nation's stakes, if everything's erased, what you gonna' do?
F E             F E             F E      F E         F E     F E       F E      F E
    I need some room to breathe, you can run with me, if you wanted to
C  D5  G
F E              F E         F E     F E         
    Yeah you can run with me, if you wanted to
C  D5  G


[Pre-Chorus 2]
E       D5   A/C#       C 
  Before the time runs out
A         A#            E 
  There's somewhere to run


[Chorus 2]
 C      Am  Em                      D
Wake up,    run for your life with me
 C      Am  Em                     D
Wake up,    run for your life with me
C   Am     Em      D
In another perfect life
C   Am     Em       D
In another perfect light
  C    Am   Em   D
We run,   we run
  C    Am
We run
E5  D5  E5  D5  E5  D5  E5  D5  E5  D5  E5  D5  E5  G5  D5  E5  
Run


[Solo]

e|------------------------------------|-----9---9---9----------------------|
B|-----12---12---12---10-------15-----|-------------------13--------15-----|
G|--/9----9----9----7----7-/12----12--|--/9---9---9---/10----10-/12----12--|
D|------------------------------------|------------------------------------| 
A|------------------------------------|------------------------------------|
E|------------------------------------|------------------------------------|

e|------------------------------------|-----9---9---7---5---5--------------|
B|-----12---12---12---10-------15-----|------------------------------------|
G|--/9----9----9----7----7-/12----12--|--/9---9---7---6---6---6------------|
D|------------------------------------|------------------------------------| 
A|------------------------------------|------------------------------------|
E|------------------------------------|------------------------------------|

E  D5  A/C#  C 
E  D5  A/C#  C


[Chorus 3]
 C      G/B  D5  A                      
Wake up -------  run for your life with me
 C      G/B  D5  A                      
Wake up -------  run for your life with me 
C   Am     Em      D
In another perfect life
C   Am     Em       D
In another perfect light
  C    Am   Em   D
We run,   we run
  C    Am
We run
E5  D5  E5  D5  E5  D5  E5  D5  E5  G5  E5  D5  E5  G5  E5  D5  E5  E5
Run


[Outro]
F E     F E     F E     F E    (mute)
F E     F E     F E     F E    (mute)
F E     F E     F E     F E    (mute)
F E     F E     E5  E5  D5  E5

You can find more useful information here: See here

Foo Fighters – Run Chords And searches related to this topic

#Foo #Fighters #Run #Chords

Foo Fighters – Run Chords

>>See more useful information provided by us here: https://australia.xemloibaihat.com.

Review the information related to the topic Foo Fighters – Run Chords again

Foo Fighters - Run Chords

[Intro]

    C            Am          E            D
e|---------10----------10----------10-----------10-----|
B|-------8---8-------8---8-------8----8-------7---7-8--|
G|-----0-------0---9-------9---9--------9---7----------|
D|--10-----------7------------------------0------------| x7
A|---------------------------7-------------------------|
E|-----------------------------------------------------|

 C      Am  Em                      D
Wake up,    run for your life with me
 C      Am  Em                     D
Wake up,    run for your life with me
C   Am     Em      D
In another perfect life
C   Am     Em       D
In another perfect light
  C    Am   Em   D
We run,   we run
  C   
We run


[Verse 1]

    F E          F E          F E          F E
e|------------------------------------------------------|
B|------------------------------------------------------|
G|------------------------------------------------------|
D|------------------------------------------------------| x12
A|------------------------------------------------------|
E|--1p0--0-0--0--1p0--0-0--0--1p0--0-0--0--1p0--0-0--0--|

F E              F E       F E      F E         F E       F E       F E      F E
    The rats are on parade, another mad charade, what you gonna do?
F E                F E          F E   F E            F E       F E       F E      F E
    The hounds are on the chase, everything's erased, what you gonna do?
F E             F E             F E      F E         F E     F E       F E      F E
    I need some room to breathe, you can stay asleep, if you wanted to
F E                 F E           F E      F E         F E     F E       F E      F E
    They say that's nothings free, you can run with me, if you wanted to
C  D5  G
F E              F E         F E     F E         
    Yeah you can run with me, if you wanted to
C  D5  G


[Pre-Chorus 1]
E       D5   A/C#       C 
  Before the time runs out
A         A#            E 
  There's somewhere to run


[Chorus 1]
 C      Am  Em                      D
Wake up,    run for your life with me
 C      Am  Em                     D
Wake up,    run for your life with me
C   Am     Em      D
In another perfect life
C   Am     Em       D
In another perfect light
  C    Am   Em   D
We run,   we run
  C    Am
We run
E5  D5  E5  D5  E5  D5  E5
Run


[Verse 2]
F E            F E             F E      F E            F E       F E        F E      F E
    We are the nation's stakes, if everything's erased, what you gonna' do?
F E             F E             F E      F E         F E     F E       F E      F E
    I need some room to breathe, you can run with me, if you wanted to
C  D5  G
F E              F E         F E     F E         
    Yeah you can run with me, if you wanted to
C  D5  G


[Pre-Chorus 2]
E       D5   A/C#       C 
  Before the time runs out
A         A#            E 
  There's somewhere to run


[Chorus 2]
 C      Am  Em                      D
Wake up,    run for your life with me
 C      Am  Em                     D
Wake up,    run for your life with me
C   Am     Em      D
In another perfect life
C   Am     Em       D
In another perfect light
  C    Am   Em   D
We run,   we run
  C    Am
We run
E5  D5  E5  D5  E5  D5  E5  D5  E5  D5  E5  D5  E5  G5  D5  E5  
Run


[Solo]

e|------------------------------------|-----9---9---9----------------------|
B|-----12---12---12---10-------15-----|-------------------13--------15-----|
G|--/9----9----9----7----7-/12----12--|--/9---9---9---/10----10-/12----12--|
D|------------------------------------|------------------------------------| 
A|------------------------------------|------------------------------------|
E|------------------------------------|------------------------------------|

e|------------------------------------|-----9---9---7---5---5--------------|
B|-----12---12---12---10-------15-----|------------------------------------|
G|--/9----9----9----7----7-/12----12--|--/9---9---7---6---6---6------------|
D|------------------------------------|------------------------------------| 
A|------------------------------------|------------------------------------|
E|------------------------------------|------------------------------------|

E  D5  A/C#  C 
E  D5  A/C#  C


[Chorus 3]
 C      G/B  D5  A                      
Wake up -------  run for your life with me
 C      G/B  D5  A                      
Wake up -------  run for your life with me 
C   Am     Em      D
In another perfect life
C   Am     Em       D
In another perfect light
  C    Am   Em   D
We run,   we run
  C    Am
We run
E5  D5  E5  D5  E5  D5  E5  D5  E5  G5  E5  D5  E5  G5  E5  D5  E5  E5
Run


[Outro]
F E     F E     F E     F E    (mute)
F E     F E     F E     F E    (mute)
F E     F E     F E     F E    (mute)
F E     F E     E5  E5  D5  E5

Thank you very much for your interest in our article. We hope this information is of great value to you.

Leave a Reply

Your email address will not be published. Required fields are marked *