Four Seasons – Working My Way Back To You Bass | Ver. 1 | The site that provides the most complete music chords

Are you looking for a topic Four Seasons – Working My Way Back To You Bass | Ver. 1
right? If so, then you can watch it right here.

Four Seasons – Working My Way Back To You Bass | Ver. 1
| You can find many other song chords here

Australia.xemloibaihat.com | Four Seasons – Working My Way Back To You Bass | Ver. 1


[Intro]
G|------------------------------3-2-0-------|-3-2-0------------------3-2-0-------|
D|-------------5-------------5--------3-2---|------3-2------3-5-3-5--------3-2---|
A|---2--3-3--5-----2--3-3--5-------------3--|----------3--5--------------------3-|
E|-3-------------3------------------------3-|------------------------------------|
 
[Chorus]
G|-------------3-2-0---------2-0----------------3-2-0---------2-0-----|
D|----3-5-3-5--------3-2---2-----2------3-5-3-5-------3-2---2-----2---|
A|-5---------------------3---------3--5-------------------3---------3-|
E|--------------------------------------------------------------------|
 
G|---------3-2-0---------3-2-0--------3-2-0---------3-2-0-------|
D|---------------3-2-----------3-2----------3-2-----------3-2---|
A|-3-5-3-------------3-------------3------------3-------------3-|
E|-------3-------------3-------------3------------3-------------|  
 
[Verse1]
G|---------------------------------------------------------------|
D|-----------------------------------5---------------------------|
A|--------5--3-5-3-3--3-5-3-5--3-5-3---3-5-3-5--3-5-3-3--3-5-3-5-|
E|-3--3-3--------------------------------------------------------|
 
G|-------5--5-5---------------------|
D|--------------5--4-4--3---3--5--5-|
A|3--3-3------------------5---------|
E|----------------------------------|
 
[Resolve]
G|-----------------------------------------------------------------|
D|---------5-3--------------5-3--------------5-3----------5------5-|
A|-----3h5-----3--------3h5-----3--------3h5-----3-----------------|
E|-3h5-----------5--3h5-----------5--3h5-----------5--3-3---3--3---|
 
[Chorus] 1:09
G|-------------3-2-0---------2-0----------------3-2-0---------2-0-----|
D|----3-5-3-5--------3-2---2-----2------3-5-3-5-------3-2---2-----2---|
A|-5---------------------3---------3--5-------------------3---------3-|
E|--------------------------------------------------------------------|
 
G|---------3-2-0---------3-2-0--------3-2-0---------3-2-0-------|
D|---------------3-2-----------3-2----------3-2-----------3-2---|
A|-3-5-3-------------3-------------3------------3-------------3-|
E|-------3-------------3-------------3------------3-------------| 
 
[Verse2]
G|---------------------------------------------------------------|
D|-----------------------------------5---------------------------|
A|--------5--3-5-3-3--3-5-3-5--3-5-3---3-5-3-5--3-5-3-3--3-5-3-5-|
E|-3--3-3--------------------------------------------------------|
 
G|-------5--5-5---------------------|
D|--------------5--4-4--3---3--5--5-|
A|3--3-3------------------5---------|
E|----------------------------------| 
 
[Resolve]
G|-----------------------------------------------------------------|
D|---------5-3--------------5-3--------------5-3----------5------5-|
A|-----3h5-----3--------3h5-----3--------3h5-----3-----------------|
E|-3h5-----------5--3h5-----------5--3h5-----------5--3-3---3--3---|
 
[Chorus] 2:07
G|-------------3-2-0---------2-0----------------3-2-0---------2-0-----|
D|----3-5-3-5--------3-2---2-----2------3-5-3-5-------3-2---2-----2---|
A|-5---------------------3---------3--5-------------------3---------3-|
E|--------------------------------------------------------------------|
 
G|---------3-2-0---------3-2-0--------3-2-0-------3-|
D|---------------3-2-----------3-2----------3-2-3---|
A|-3-5-3-------------3-------------3----------------|
E|-------3-------------3-------------3--------------| 
 
[Outro]
G|--------------------1---1---1------|
D|-3--3-5-3-5-------3---3---3---3-1--| fade
A|------------3-1-1----------------3-|
E|-----------------------------------|
            

You can find more useful information here: https://australia.xemloibaihat.com/chord

Four Seasons – Working My Way Back To You Bass | Ver. 1
And searches related to this topic

#Seasons #Working #Bass #Ver

Four Seasons – Working My Way Back To You Bass | Ver. 1

>>See more useful information provided by us here: View here.

Review the information related to the topic Four Seasons – Working My Way Back To You Bass | Ver. 1
again

Australia.xemloibaihat.com | Four Seasons – Working My Way Back To You Bass | Ver. 1


[Intro]
G|------------------------------3-2-0-------|-3-2-0------------------3-2-0-------|
D|-------------5-------------5--------3-2---|------3-2------3-5-3-5--------3-2---|
A|---2--3-3--5-----2--3-3--5-------------3--|----------3--5--------------------3-|
E|-3-------------3------------------------3-|------------------------------------|
 
[Chorus]
G|-------------3-2-0---------2-0----------------3-2-0---------2-0-----|
D|----3-5-3-5--------3-2---2-----2------3-5-3-5-------3-2---2-----2---|
A|-5---------------------3---------3--5-------------------3---------3-|
E|--------------------------------------------------------------------|
 
G|---------3-2-0---------3-2-0--------3-2-0---------3-2-0-------|
D|---------------3-2-----------3-2----------3-2-----------3-2---|
A|-3-5-3-------------3-------------3------------3-------------3-|
E|-------3-------------3-------------3------------3-------------|  
 
[Verse1]
G|---------------------------------------------------------------|
D|-----------------------------------5---------------------------|
A|--------5--3-5-3-3--3-5-3-5--3-5-3---3-5-3-5--3-5-3-3--3-5-3-5-|
E|-3--3-3--------------------------------------------------------|
 
G|-------5--5-5---------------------|
D|--------------5--4-4--3---3--5--5-|
A|3--3-3------------------5---------|
E|----------------------------------|
 
[Resolve]
G|-----------------------------------------------------------------|
D|---------5-3--------------5-3--------------5-3----------5------5-|
A|-----3h5-----3--------3h5-----3--------3h5-----3-----------------|
E|-3h5-----------5--3h5-----------5--3h5-----------5--3-3---3--3---|
 
[Chorus] 1:09
G|-------------3-2-0---------2-0----------------3-2-0---------2-0-----|
D|----3-5-3-5--------3-2---2-----2------3-5-3-5-------3-2---2-----2---|
A|-5---------------------3---------3--5-------------------3---------3-|
E|--------------------------------------------------------------------|
 
G|---------3-2-0---------3-2-0--------3-2-0---------3-2-0-------|
D|---------------3-2-----------3-2----------3-2-----------3-2---|
A|-3-5-3-------------3-------------3------------3-------------3-|
E|-------3-------------3-------------3------------3-------------| 
 
[Verse2]
G|---------------------------------------------------------------|
D|-----------------------------------5---------------------------|
A|--------5--3-5-3-3--3-5-3-5--3-5-3---3-5-3-5--3-5-3-3--3-5-3-5-|
E|-3--3-3--------------------------------------------------------|
 
G|-------5--5-5---------------------|
D|--------------5--4-4--3---3--5--5-|
A|3--3-3------------------5---------|
E|----------------------------------| 
 
[Resolve]
G|-----------------------------------------------------------------|
D|---------5-3--------------5-3--------------5-3----------5------5-|
A|-----3h5-----3--------3h5-----3--------3h5-----3-----------------|
E|-3h5-----------5--3h5-----------5--3h5-----------5--3-3---3--3---|
 
[Chorus] 2:07
G|-------------3-2-0---------2-0----------------3-2-0---------2-0-----|
D|----3-5-3-5--------3-2---2-----2------3-5-3-5-------3-2---2-----2---|
A|-5---------------------3---------3--5-------------------3---------3-|
E|--------------------------------------------------------------------|
 
G|---------3-2-0---------3-2-0--------3-2-0-------3-|
D|---------------3-2-----------3-2----------3-2-3---|
A|-3-5-3-------------3-------------3----------------|
E|-------3-------------3-------------3--------------| 
 
[Outro]
G|--------------------1---1---1------|
D|-3--3-5-3-5-------3---3---3---3-1--| fade
A|------------3-1-1----------------3-|
E|-----------------------------------|
            

Thank you very much for your interest in our article. We hope this information is of great value to you.

Leave a Reply

Your email address will not be published. Required fields are marked *