Home » Gary Jules – Mad World Ukulele | Ver. 3 | The site that provides the most complete music chords

Gary Jules – Mad World Ukulele | Ver. 3 | The site that provides the most complete music chords

Are you looking for a topic Gary Jules – Mad World Ukulele | Ver. 3
right? If so, then you can watch it right here.

Gary Jules – Mad World Ukulele | Ver. 3
| You can find many other song chords here

Australia.xemloibaihat.com | Gary Jules – Mad World Ukulele | Ver. 3


[Intro]
A|----3------------------------8------8--|
E|-4-----3--4--1--3-----------10-----10--|
C|-------------------3--2--10----10------|
G|---------------------------------------|
 
A|----3---------------------8-----8----|
E|-4-----3--4--1--3-4-6-----10----10---|
C|-----------------------10-----10-----|
G|-------------------------------------|
 [Verse]
 
A|-----3-------3----------6-------6---|
E|-----4-------4----------8-------8---|
C|-5-------5----------8-------8-------|
G|------------------------------------|
      All around me are familiar faces
A|-----1-------1----------8-------8---|
E|-----3-------3---------10-------10--|
C|-3-------3----------10-------10-----|
G|------------------------------------|
 
      Worn out places, worn out faces
A|-----3-------3----------6-------6---|
E|-----4-------4----------8-------8---|
C|-5-------5----------8---------------|
G|------------------------------------|
 
      Bright and early for their daily races
A|-----1-------1----------8-------8---|
E|-----3-------3---------10-------10--|
C|-3-------3----------10-------10-----|
G|------------------------------------|
      Going nowhere, going nowhere
 
A|-----3-------3----------6-------6---|
E|-----4-------4----------8-------8---|
C|-5-------5----------8---------------|
G|------------------------------------|
      Their tears are filling up their glasses
 
A|-----1-------1----------8-------8---|
E|-----3-------3---------10-------10--|
C|-3-------3----------10-------10-----|
G|------------------------------------|      No expression, no expression
 
 
A|-----3-------3----------6-------6---|
E|-----4-------4----------8-------8---|
C|-5-------5----------8---------------|
G|------------------------------------|
 
      Hide my head, I want to drown my sorrow
A|-----1-------1----------8-------8---|
E|-----3-------3---------10-------10--|
C|-3-------3----------10-------10-----|
G|------------------------------------|
      No tomorrow,     no tomorrow
A|-----3-------3----------8-------8---|
E|-----4-------4----------10------10--|
C|-5-------5----------10------10------|
G|------------------------------------|
      And I find it kind of funny, I find it kind of
 
A|-----3-------3----------8-------8---|
E|-----4-------4----------10------10--|
C|-5-------5----------10------10------|
G|------------------------------------|
   sad The dreams in which I'm dying are the best I've ever
 
A|-----3-------3----------8-------8---|
E|-----4-------4----------10------10--|
C|-5-------5----------10------10------|
G|------------------------------------|
    And I find it hard to tell you, I find it hard to
 
A|-----3-------3----------8-------8---|
E|-----4-------4----------10------10--|
C|-5-------5----------10------10------|
G|------------------------------------|
    take when people run in circles It's a very, very
 
|----3------------------------8------8--|
|-4-----3--4--1--3-----------10-----10--|
|-------------------3--2--10----10------|
|--------------------------------------|
                         Mad World
|----3---------------------8-----8----|
|-4-----3--4--1--3-4-6-----10----10---|
|-----------------------10-----10-----|
|-------------------------------------|
            

See also  Amy Macdonald - This Is The Life Chords | The site that provides the most complete music chords
See also  Maverick City Music feat. Dante Bowe, Naomi Raine, Katie Torwalt and Mav City Gospel Choir | The site that provides the most complete music chords

You can find more useful information here: https://australia.xemloibaihat.com/chord/

Gary Jules – Mad World Ukulele | Ver. 3
And searches related to this topic

#Gary #Jules #Mad #World #Ukulele #Ver

Gary Jules – Mad World Ukulele | Ver. 3

>>See more useful information provided by us here: See here.

Review the information related to the topic Gary Jules – Mad World Ukulele | Ver. 3
again

Australia.xemloibaihat.com | Gary Jules – Mad World Ukulele | Ver. 3


[Intro]
A|----3------------------------8------8--|
E|-4-----3--4--1--3-----------10-----10--|
C|-------------------3--2--10----10------|
G|---------------------------------------|
 
A|----3---------------------8-----8----|
E|-4-----3--4--1--3-4-6-----10----10---|
C|-----------------------10-----10-----|
G|-------------------------------------|
 [Verse]
 
A|-----3-------3----------6-------6---|
E|-----4-------4----------8-------8---|
C|-5-------5----------8-------8-------|
G|------------------------------------|
      All around me are familiar faces
A|-----1-------1----------8-------8---|
E|-----3-------3---------10-------10--|
C|-3-------3----------10-------10-----|
G|------------------------------------|
 
      Worn out places, worn out faces
A|-----3-------3----------6-------6---|
E|-----4-------4----------8-------8---|
C|-5-------5----------8---------------|
G|------------------------------------|
 
      Bright and early for their daily races
A|-----1-------1----------8-------8---|
E|-----3-------3---------10-------10--|
C|-3-------3----------10-------10-----|
G|------------------------------------|
      Going nowhere, going nowhere
 
A|-----3-------3----------6-------6---|
E|-----4-------4----------8-------8---|
C|-5-------5----------8---------------|
G|------------------------------------|
      Their tears are filling up their glasses
 
A|-----1-------1----------8-------8---|
E|-----3-------3---------10-------10--|
C|-3-------3----------10-------10-----|
G|------------------------------------|      No expression, no expression
 
 
A|-----3-------3----------6-------6---|
E|-----4-------4----------8-------8---|
C|-5-------5----------8---------------|
G|------------------------------------|
 
      Hide my head, I want to drown my sorrow
A|-----1-------1----------8-------8---|
E|-----3-------3---------10-------10--|
C|-3-------3----------10-------10-----|
G|------------------------------------|
      No tomorrow,     no tomorrow
A|-----3-------3----------8-------8---|
E|-----4-------4----------10------10--|
C|-5-------5----------10------10------|
G|------------------------------------|
      And I find it kind of funny, I find it kind of
 
A|-----3-------3----------8-------8---|
E|-----4-------4----------10------10--|
C|-5-------5----------10------10------|
G|------------------------------------|
   sad The dreams in which I'm dying are the best I've ever
 
A|-----3-------3----------8-------8---|
E|-----4-------4----------10------10--|
C|-5-------5----------10------10------|
G|------------------------------------|
    And I find it hard to tell you, I find it hard to
 
A|-----3-------3----------8-------8---|
E|-----4-------4----------10------10--|
C|-5-------5----------10------10------|
G|------------------------------------|
    take when people run in circles It's a very, very
 
|----3------------------------8------8--|
|-4-----3--4--1--3-----------10-----10--|
|-------------------3--2--10----10------|
|--------------------------------------|
                         Mad World
|----3---------------------8-----8----|
|-4-----3--4--1--3-4-6-----10----10---|
|-----------------------10-----10-----|
|-------------------------------------|
            

See also  Eli Rose - Alibi Chords | Ver. 1 | The site that provides the most complete music chords

Thank you very much for your interest in our article. We hope this information is of great value to you.

Leave a Reply

Your email address will not be published.