Gerard Way – Zero Zero Tabs | Ver. 1 | The site that provides the most complete music chords

Are you looking for a topic Gerard Way – Zero Zero Tabs | Ver. 1
right? If so, then you can watch it right here.

Gerard Way – Zero Zero Tabs | Ver. 1
| You can find many other song chords here

Australia.xemloibaihat.com | Gerard Way – Zero Zero Tabs | Ver. 1


[Intro]
 
e|------------------------------------|
B|-11------------------11-------------|
G|-----9--10--13--10-------9--10------|
D|------------------------------------|
A|------------------------------------|
E|------------------------------------|
   ~           ~
 
[Verse]
 
e|-----------------------------------------|
B|-----------------------------------------|
G|-10-10-10--9--9--9-----------------------| x8
D|-10-10-10--9--9--9-----------------------|
A|-8--8--8---7--7--7---12-12-12--12-12-12--|
E|-9--9--9---8--8--8---10-10-10--10-10-10--|
 
[Chorus]
 
e|-----------------------------------------|
B|-----------------------------------------|
G|-7--7--7---10-10-10--8--8--8---8--8--8---|
D|-7--7--7---10-10-10--8--8--8---8--8--8---| x4
A|-5--5--5---8--8--8---6--6--6---6--6--6---|
E|-6--6--6---9--9--9---7--7--7---7--7--7---|
when he goes “oh oh oh oh” at the end of
the chorus, it’s just the first chord of
the chorus 8 times
 
[Interlude]
 
e|------------------------------------|
B|-11------------------11-------------|
G|-----9--10--13--10-------9--10------|
D|------------------------------------|
A|------------------------------------|
E|------------------------------------|
   ~           ~
 
[Verse]
 
e|-----------------------------------------|
B|-----------------------------------------|
G|-10-10-10--9--9--9-----------------------| x3
D|-10-10-10--9--9--9-----------------------|
A|-8--8--8---7--7--7---12-12-12--12-12-12--|
E|-9--9--9---8--8--8---10-10-10--10-10-10--|
 
[Chorus]
 
e|-----------------------------------------|
B|-----------------------------------------|
G|-7--7--7---10-10-10--8--8--8---8--8--8---|
D|-7--7--7---10-10-10--8--8--8---8--8--8---| x4
A|-5--5--5---8--8--8---6--6--6---6--6--6---|
E|-6--6--6---9--9--9---7--7--7---7--7--7---|
 
[Bridge]
 
e|-----------------------------------------------------------------|-----------|
B|-----------------------------------------------------------------|-----------|
G|-----------------------------------------------------------------|-----------|
D|-----------------------------------------------------------------|-----------| x4
A|-6-6-6-6-6-6-6-6--7-7-7-7-7-7-7-7--8-8-8-8-8-----------8-8-8-8-8-|-----------|
E|-4-4-4-4-4-4-4-4--5-5-5-5-5-5-5-5--6-6-6-6-6--3--4--5--6-6-6-6-6-|-5--4--3---|
 
 
[Interlude]
 
e|------------------------------------|
B|-11------------------11-------------|
G|-----9--10--13--10-------9--10------|
D|------------------------------------|
A|------------------------------------|
E|------------------------------------|
   ~           ~
 
[Verse]
 
e|-----------------------------------------|
B|-----------------------------------------|
G|-10-10-10--9--9--9-----------------------| x3
D|-10-10-10--9--9--9-----------------------|
A|-8--8--8---7--7--7---12-12-12--12-12-12--|
E|-9--9--9---8--8--8---10-10-10--10-10-10--|
 
[Chorus]
 
e|-----------------------------------------|
B|-----------------------------------------|
G|-7--7--7---10-10-10--8--8--8---8--8--8---|
D|-7--7--7---10-10-10--8--8--8---8--8--8---| x8
A|-5--5--5---8--8--8---6--6--6---6--6--6---|
E|-6--6--6---9--9--9---7--7--7---7--7--7---|
            

You can find more useful information here: See here

Gerard Way – Zero Zero Tabs | Ver. 1
And searches related to this topic

#Gerard #Tabs #Ver

Gerard Way – Zero Zero Tabs | Ver. 1

>>See more useful information provided by us here: https://australia.xemloibaihat.com.

Review the information related to the topic Gerard Way – Zero Zero Tabs | Ver. 1
again

Australia.xemloibaihat.com | Gerard Way – Zero Zero Tabs | Ver. 1


[Intro]
 
e|------------------------------------|
B|-11------------------11-------------|
G|-----9--10--13--10-------9--10------|
D|------------------------------------|
A|------------------------------------|
E|------------------------------------|
   ~           ~
 
[Verse]
 
e|-----------------------------------------|
B|-----------------------------------------|
G|-10-10-10--9--9--9-----------------------| x8
D|-10-10-10--9--9--9-----------------------|
A|-8--8--8---7--7--7---12-12-12--12-12-12--|
E|-9--9--9---8--8--8---10-10-10--10-10-10--|
 
[Chorus]
 
e|-----------------------------------------|
B|-----------------------------------------|
G|-7--7--7---10-10-10--8--8--8---8--8--8---|
D|-7--7--7---10-10-10--8--8--8---8--8--8---| x4
A|-5--5--5---8--8--8---6--6--6---6--6--6---|
E|-6--6--6---9--9--9---7--7--7---7--7--7---|
when he goes “oh oh oh oh” at the end of
the chorus, it’s just the first chord of
the chorus 8 times
 
[Interlude]
 
e|------------------------------------|
B|-11------------------11-------------|
G|-----9--10--13--10-------9--10------|
D|------------------------------------|
A|------------------------------------|
E|------------------------------------|
   ~           ~
 
[Verse]
 
e|-----------------------------------------|
B|-----------------------------------------|
G|-10-10-10--9--9--9-----------------------| x3
D|-10-10-10--9--9--9-----------------------|
A|-8--8--8---7--7--7---12-12-12--12-12-12--|
E|-9--9--9---8--8--8---10-10-10--10-10-10--|
 
[Chorus]
 
e|-----------------------------------------|
B|-----------------------------------------|
G|-7--7--7---10-10-10--8--8--8---8--8--8---|
D|-7--7--7---10-10-10--8--8--8---8--8--8---| x4
A|-5--5--5---8--8--8---6--6--6---6--6--6---|
E|-6--6--6---9--9--9---7--7--7---7--7--7---|
 
[Bridge]
 
e|-----------------------------------------------------------------|-----------|
B|-----------------------------------------------------------------|-----------|
G|-----------------------------------------------------------------|-----------|
D|-----------------------------------------------------------------|-----------| x4
A|-6-6-6-6-6-6-6-6--7-7-7-7-7-7-7-7--8-8-8-8-8-----------8-8-8-8-8-|-----------|
E|-4-4-4-4-4-4-4-4--5-5-5-5-5-5-5-5--6-6-6-6-6--3--4--5--6-6-6-6-6-|-5--4--3---|
 
 
[Interlude]
 
e|------------------------------------|
B|-11------------------11-------------|
G|-----9--10--13--10-------9--10------|
D|------------------------------------|
A|------------------------------------|
E|------------------------------------|
   ~           ~
 
[Verse]
 
e|-----------------------------------------|
B|-----------------------------------------|
G|-10-10-10--9--9--9-----------------------| x3
D|-10-10-10--9--9--9-----------------------|
A|-8--8--8---7--7--7---12-12-12--12-12-12--|
E|-9--9--9---8--8--8---10-10-10--10-10-10--|
 
[Chorus]
 
e|-----------------------------------------|
B|-----------------------------------------|
G|-7--7--7---10-10-10--8--8--8---8--8--8---|
D|-7--7--7---10-10-10--8--8--8---8--8--8---| x8
A|-5--5--5---8--8--8---6--6--6---6--6--6---|
E|-6--6--6---9--9--9---7--7--7---7--7--7---|
            

Thank you very much for your interest in our article. We hope this information is of great value to you.

Leave a Reply

Your email address will not be published. Required fields are marked *