Gojira – Brutal Abortion Tabs | Ver. 1 | The site that provides the most complete music chords

Are you looking for a topic Gojira – Brutal Abortion Tabs | Ver. 1
right? If so, then you can watch it right here.

Gojira – Brutal Abortion Tabs | Ver. 1
| You can find many other song chords here

Australia.xemloibaihat.com | Gojira – Brutal Abortion Tabs | Ver. 1


Tuning: D Standard (DGCFAD)
 
  [0:00]
D|------------------------------------------|
A|------------------------------------------|
F|------------------------------------------|
C|----7-6--------------------3-2-4-3--------|
G|----5-4-------3------5-4---3-2-4-3-3-2----|
D|--------------1----------5---------3-2----|4x
                             * * * * * *
  [0:22]
D|-------------------------------------------------|
A|-------------------------------------------------|
F|---------------------------5/6-------------------|
C|----7-6------------------------------------------|
G|----5-4-------0-0-0-0-0-0--3/4----0-0-0-0-0-0----|
D|--------------0-0-0-0-0-0---------0-0-0-0-0-0----|1x
                * * * * * *         * * * * * *
  [0:30]
D|---------------------------------------------------------------------------------------------|
A|---------------------------------------------------------------------------------------------|
F|---------------------------------------------------------------------------------------------|
C|---------------------------------------------------------------------------------------------|
G|----------------------------------0-0-0-0-0-0----------------------------5ph--1-1-1-1-1-1----|
D|----9t------6t------9t--8t--2t----0-0-0-0-0-0----9t------6t------9t--8t-------1-1-1-1-1-1----|2x
      *       *       *   *   *     * * * * * *    *       *       *   *        * * * * * *
  [0:45]
D|----------------------------------------------------------------------------------|
A|----------------------------------------------------------------------------------|
F|----------------------------------------------------------------------------------|
C|----------------------------------------------------------------------------------|
G|-------------------------4--0-0-0-0-0-0-----------------------3ph--1-1-1-1-1-1----|
D|----1/6----3-6---5---1------0-0-0-0-0-0--1/6----3-6---5---1--------1-1-1-1-1-1----|2x
                              * * * * * *                            * * * * * *
  [1:00]
D|-----------------------------------------|
A|-----------------------------------------|
F|-----------------------------------------|
C|-----------------------------------------|
G|----0---0-0-0--0---0---0--7---6---7/8----|
D|----0---0-0-0--0---0---0-----------------|x4
      *   * * *  *   *   *
  [1:09]
D|------------------------------------------|
A|------------------------------------------|
F|------------------------------------------|
C|--------------------------9---8---9/10----|
G|----0---0-0-0--0---0---0------------------|
D|----0---0-0-0--0---0---0------------------|x4
      *   * * *  *   *   *
  [1:17]
D|----------------------------------------------------------------------------------|
A|----------------------------------------------------------------------------------|
F|----------------------------------------------------------------------------------|
C|----------------------------------------------------------------------------------|
G|-------------------------4--0-0-0-0-0-0-----------------------3ph--1-1-1-1-1-1----|
D|----1/6----3-6---5---1------0-0-0-0-0-0--1/6----3-6---5---1--------1-1-1-1-1-1----|2x
                              * * * * * *                            * * * * * *
  [1:32]
D|---------------------|
A|---------------------|
F|---------------------|
C|---------------------|
G|----0-----0-----0----|
D|----0-----0-----0----|1x
      *     *     *
  [1:33]
D|----------------------------------------|
A|----------------------------------------|
F|----------------------------------------|
C|----76----------65----------54-------|
G|----54----0--0--43----0--0--32--3----|
D|----54----0--0--43----0--0--32--1----|4x
             *  *         *  *
  [1:50]
D|-----------------------------------------|
A|-----------------------------------------|
F|-----------------------------------------|
C|------------------65----------54-------|
G|------------0--0--43----0--0--32--3----|
D|----2/4~----0--0--43----0--0--32--1----|2x
              *  *         *  *
  [1:59]
D|------------------------------------------|
A|------------------------------------------|
F|------------------------------------------|
C|----76------------65----------54-------|
G|----54----0--0----43----0--0--32--3----|
D|----54----0--0----43----0--0--32--1----|2x
             *  *           *  *
  [2:08]
D|-----------------------------------------|
A|-----------------------------------------|
F|-----------------------------------------|
C|------------------65----------54-------|
G|------------0--0--43----0--0--32--3----|
D|----2/4~----0--0--43----0--0--32--1----|1x
              *  *         *  *
  [2:12]
D|--------------------------------------|
A|--------------------------------------|
F|--------------------------------------|
C|--------------------65---------------|
G|------------0--0----43--0--0--3-2----|
D|----2/4~----0--0----43--0--0--3-2----|1x
              *  *         *  *  * *
  [2:16]
D|--------------------------------------------------------------------------------------------------------|
A|--------------------------------------------------------------------------------------------------------|
F|-----------------------------------------------------------------------------------------------3--2-----|
C|--------------------------------------------------------------------------------------------------------|
G|--------------------------86-------------------75------------------------------86-----0--2-----------|
D|0-0-0----0----0----0-0-0-------0----0----0-0-0---------0-0-0----0----0----0-0-0-------1--------------3ph|1x
  * * *    *    *    * * *       *    *    * * *         * * *    *    *    *   *       *  *  *     *
  [2:21]
D|--------------------------------------------------------------|
A|--------------------------------------------------------------|
F|--------------------------------------------------------------|
C|--------------------------------------------------------------|
G|-------------------------------86---------------------75----|
D|----0-0-0----0----0----0-0-0---------0----0----0-0-0----------|2x
      * * *    *    *    * * *         *    *    * * *
  [2:26]
D|------------------------------86---------------------75-----|
A|--------------------------------------------------------------|
F|--------------------------------------------------------------|
C|--------------------------------------------------------------|
G|--------------------------------------------------------------|
D|----0-0-0----0----0----0-0-0---------0----0----0-0-0----------|2x
      * * *    *    *    * * *         *    *    * * *
  [2:29]
D|----------------------------------------------------------------------|
A|----------------------------------------------------------------------|
F|----------------------------------------------------------------------|
C|----------------------------------------------------------------------|
G|--------------------------------------75--75--75--75--75--75----|
D|----0-0-0----0-0-0----0-0-0----0-0-0----------------------------------|1x
      * * *    * * *    * * *    * * *
  [2:32]
D|---------------------------------------------------|
A|---------------------------------------------------|
F|---------------------------------------------------|
C|----3---------3-----------------------------2ph----|
G|----1----0-0--1----0-0-0----0-0-0----0--0----------|
D|----1----0-0--1----0-0-0----0-0-0----0--0----------|2x
           * *       * * *    * * *    *  *
  [2:37]
D|---------------------------------------------------|
A|---------------------------------------------------|
F|---------------------------------------------------|
C|----3---------3-----------------------------3------|
G|----1----0-0--1----0-0-0----0-0-0----0--0----------|
D|----1----0-0--1----0-0-0----0-0-0----0--0----------|2x
           * *       * * *    * * *    *  *
  [2:42]
D|-------------------------------------------------|
A|-------------------------------------------------|
F|-------------------------------------------------|
C|----5----------------4---------------------------|
G|----3----------------2----------------3--2--1----|
D|----3----------------2----------------3--2--1----|1x
                                        *  *  *
  [2:47]
D|-------------------------------------------------|
A|-------------------------------------------------|
F|-------------------------------------------------|
C|----3---------3---------------------------2ph----|
G|----1----0-0--1----0-0-0----0-0-0----0-0---------|
D|----1----0-0--1----0-0-0----0-0-0----0-0---------|2x
           * *       * * *    * * *    * *
  [2:52]
D|--------------------------|
A|--------------------------|
F|--------------------------|
C|----5----------------4----|
G|----3----------------2----|
D|----3----------------2----|x1       
 
  [2:56]
D|-----------------------|
A|-----------------------|
F|-----------------------|
C|-----------------------|
G|----3-3-3-3-3-3-3-3----|
D|----1-1-1-1-1-1-1-1----|4x
      * * * * * * * *
  [3:01]
D|---------------------------------------------------------------------------------------------|
A|---------------------------------------------------------------------------------------------|
F|---------------------------------------------------------------------------------------------|
C|---------------------------------------------------------------------------------------------|
G|----------------------------------0-0-0-0-0-0----------------------------5ph--1-1-1-1-1-1----|
D|----9t------6t------9t--8t--2t----0-0-0-0-0-0----9t------6t------9t--8t-------1-1-1-1-1-1----|2x
      *       *       *   *   *     * * * * * *    *       *       *   *        * * * * * *
  [3:17]
D|-------------------|
A|-------------------|
F|-------------------|
C|-------------------|
G|----1-1-1-1-1-1----|
D|----1-1-1-1-1-1----|x3
      * * * * * *
  [3:22]
D|---------------------|
A|---------------------|
F|---------------------|
C|----------3----------|
G|----------1----------|
D|----1-1-1-1-1-1-1----|1x
      * * *   * * *
  [3:23]
D|----------------------------------------------------------------------------|
A|----------------------------------------------------------------------------|
F|----------------------------------------------------------------------------|
C|----------------------------------------------------------------------------|
G|-------------------------4--0-0-0-0-0-0-----------------------3ph--1-1-1----|
D|----1/6----3-6---5---1------0-0-0-0-0-0--1/6----3-6---5---1--------1-1-1----|1x
                              * * * * * *                            * * *
  [3:30]
D|-------------------------------------------------------------------------------------|
A|-------------------------------------------------------------------------------------|
F|-------------------------------------------------------------------------------------|
C|-------------------------------------------------------------------------------------|
G|---------------------------4--0-0-0-0-0-0--------------------------3ph--0-0-0-0-0----|
D|----1/6----3--6---5----1------0-0-0-0-0-0--1/6----3--6----5----1--------0-0-0-0-0----|1x
                                * * * * * *                               * * * * *
            

You can find more useful information here: See more

Gojira – Brutal Abortion Tabs | Ver. 1
And searches related to this topic

#Gojira #Brutal #Abortion #Tabs #Ver

Gojira – Brutal Abortion Tabs | Ver. 1

>>See more useful information provided by us here: See more here.

Review the information related to the topic Gojira – Brutal Abortion Tabs | Ver. 1
again

Australia.xemloibaihat.com | Gojira – Brutal Abortion Tabs | Ver. 1


Tuning: D Standard (DGCFAD)
 
  [0:00]
D|------------------------------------------|
A|------------------------------------------|
F|------------------------------------------|
C|----7-6--------------------3-2-4-3--------|
G|----5-4-------3------5-4---3-2-4-3-3-2----|
D|--------------1----------5---------3-2----|4x
                             * * * * * *
  [0:22]
D|-------------------------------------------------|
A|-------------------------------------------------|
F|---------------------------5/6-------------------|
C|----7-6------------------------------------------|
G|----5-4-------0-0-0-0-0-0--3/4----0-0-0-0-0-0----|
D|--------------0-0-0-0-0-0---------0-0-0-0-0-0----|1x
                * * * * * *         * * * * * *
  [0:30]
D|---------------------------------------------------------------------------------------------|
A|---------------------------------------------------------------------------------------------|
F|---------------------------------------------------------------------------------------------|
C|---------------------------------------------------------------------------------------------|
G|----------------------------------0-0-0-0-0-0----------------------------5ph--1-1-1-1-1-1----|
D|----9t------6t------9t--8t--2t----0-0-0-0-0-0----9t------6t------9t--8t-------1-1-1-1-1-1----|2x
      *       *       *   *   *     * * * * * *    *       *       *   *        * * * * * *
  [0:45]
D|----------------------------------------------------------------------------------|
A|----------------------------------------------------------------------------------|
F|----------------------------------------------------------------------------------|
C|----------------------------------------------------------------------------------|
G|-------------------------4--0-0-0-0-0-0-----------------------3ph--1-1-1-1-1-1----|
D|----1/6----3-6---5---1------0-0-0-0-0-0--1/6----3-6---5---1--------1-1-1-1-1-1----|2x
                              * * * * * *                            * * * * * *
  [1:00]
D|-----------------------------------------|
A|-----------------------------------------|
F|-----------------------------------------|
C|-----------------------------------------|
G|----0---0-0-0--0---0---0--7---6---7/8----|
D|----0---0-0-0--0---0---0-----------------|x4
      *   * * *  *   *   *
  [1:09]
D|------------------------------------------|
A|------------------------------------------|
F|------------------------------------------|
C|--------------------------9---8---9/10----|
G|----0---0-0-0--0---0---0------------------|
D|----0---0-0-0--0---0---0------------------|x4
      *   * * *  *   *   *
  [1:17]
D|----------------------------------------------------------------------------------|
A|----------------------------------------------------------------------------------|
F|----------------------------------------------------------------------------------|
C|----------------------------------------------------------------------------------|
G|-------------------------4--0-0-0-0-0-0-----------------------3ph--1-1-1-1-1-1----|
D|----1/6----3-6---5---1------0-0-0-0-0-0--1/6----3-6---5---1--------1-1-1-1-1-1----|2x
                              * * * * * *                            * * * * * *
  [1:32]
D|---------------------|
A|---------------------|
F|---------------------|
C|---------------------|
G|----0-----0-----0----|
D|----0-----0-----0----|1x
      *     *     *
  [1:33]
D|----------------------------------------|
A|----------------------------------------|
F|----------------------------------------|
C|----76----------65----------54-------|
G|----54----0--0--43----0--0--32--3----|
D|----54----0--0--43----0--0--32--1----|4x
             *  *         *  *
  [1:50]
D|-----------------------------------------|
A|-----------------------------------------|
F|-----------------------------------------|
C|------------------65----------54-------|
G|------------0--0--43----0--0--32--3----|
D|----2/4~----0--0--43----0--0--32--1----|2x
              *  *         *  *
  [1:59]
D|------------------------------------------|
A|------------------------------------------|
F|------------------------------------------|
C|----76------------65----------54-------|
G|----54----0--0----43----0--0--32--3----|
D|----54----0--0----43----0--0--32--1----|2x
             *  *           *  *
  [2:08]
D|-----------------------------------------|
A|-----------------------------------------|
F|-----------------------------------------|
C|------------------65----------54-------|
G|------------0--0--43----0--0--32--3----|
D|----2/4~----0--0--43----0--0--32--1----|1x
              *  *         *  *
  [2:12]
D|--------------------------------------|
A|--------------------------------------|
F|--------------------------------------|
C|--------------------65---------------|
G|------------0--0----43--0--0--3-2----|
D|----2/4~----0--0----43--0--0--3-2----|1x
              *  *         *  *  * *
  [2:16]
D|--------------------------------------------------------------------------------------------------------|
A|--------------------------------------------------------------------------------------------------------|
F|-----------------------------------------------------------------------------------------------3--2-----|
C|--------------------------------------------------------------------------------------------------------|
G|--------------------------86-------------------75------------------------------86-----0--2-----------|
D|0-0-0----0----0----0-0-0-------0----0----0-0-0---------0-0-0----0----0----0-0-0-------1--------------3ph|1x
  * * *    *    *    * * *       *    *    * * *         * * *    *    *    *   *       *  *  *     *
  [2:21]
D|--------------------------------------------------------------|
A|--------------------------------------------------------------|
F|--------------------------------------------------------------|
C|--------------------------------------------------------------|
G|-------------------------------86---------------------75----|
D|----0-0-0----0----0----0-0-0---------0----0----0-0-0----------|2x
      * * *    *    *    * * *         *    *    * * *
  [2:26]
D|------------------------------86---------------------75-----|
A|--------------------------------------------------------------|
F|--------------------------------------------------------------|
C|--------------------------------------------------------------|
G|--------------------------------------------------------------|
D|----0-0-0----0----0----0-0-0---------0----0----0-0-0----------|2x
      * * *    *    *    * * *         *    *    * * *
  [2:29]
D|----------------------------------------------------------------------|
A|----------------------------------------------------------------------|
F|----------------------------------------------------------------------|
C|----------------------------------------------------------------------|
G|--------------------------------------75--75--75--75--75--75----|
D|----0-0-0----0-0-0----0-0-0----0-0-0----------------------------------|1x
      * * *    * * *    * * *    * * *
  [2:32]
D|---------------------------------------------------|
A|---------------------------------------------------|
F|---------------------------------------------------|
C|----3---------3-----------------------------2ph----|
G|----1----0-0--1----0-0-0----0-0-0----0--0----------|
D|----1----0-0--1----0-0-0----0-0-0----0--0----------|2x
           * *       * * *    * * *    *  *
  [2:37]
D|---------------------------------------------------|
A|---------------------------------------------------|
F|---------------------------------------------------|
C|----3---------3-----------------------------3------|
G|----1----0-0--1----0-0-0----0-0-0----0--0----------|
D|----1----0-0--1----0-0-0----0-0-0----0--0----------|2x
           * *       * * *    * * *    *  *
  [2:42]
D|-------------------------------------------------|
A|-------------------------------------------------|
F|-------------------------------------------------|
C|----5----------------4---------------------------|
G|----3----------------2----------------3--2--1----|
D|----3----------------2----------------3--2--1----|1x
                                        *  *  *
  [2:47]
D|-------------------------------------------------|
A|-------------------------------------------------|
F|-------------------------------------------------|
C|----3---------3---------------------------2ph----|
G|----1----0-0--1----0-0-0----0-0-0----0-0---------|
D|----1----0-0--1----0-0-0----0-0-0----0-0---------|2x
           * *       * * *    * * *    * *
  [2:52]
D|--------------------------|
A|--------------------------|
F|--------------------------|
C|----5----------------4----|
G|----3----------------2----|
D|----3----------------2----|x1       
 
  [2:56]
D|-----------------------|
A|-----------------------|
F|-----------------------|
C|-----------------------|
G|----3-3-3-3-3-3-3-3----|
D|----1-1-1-1-1-1-1-1----|4x
      * * * * * * * *
  [3:01]
D|---------------------------------------------------------------------------------------------|
A|---------------------------------------------------------------------------------------------|
F|---------------------------------------------------------------------------------------------|
C|---------------------------------------------------------------------------------------------|
G|----------------------------------0-0-0-0-0-0----------------------------5ph--1-1-1-1-1-1----|
D|----9t------6t------9t--8t--2t----0-0-0-0-0-0----9t------6t------9t--8t-------1-1-1-1-1-1----|2x
      *       *       *   *   *     * * * * * *    *       *       *   *        * * * * * *
  [3:17]
D|-------------------|
A|-------------------|
F|-------------------|
C|-------------------|
G|----1-1-1-1-1-1----|
D|----1-1-1-1-1-1----|x3
      * * * * * *
  [3:22]
D|---------------------|
A|---------------------|
F|---------------------|
C|----------3----------|
G|----------1----------|
D|----1-1-1-1-1-1-1----|1x
      * * *   * * *
  [3:23]
D|----------------------------------------------------------------------------|
A|----------------------------------------------------------------------------|
F|----------------------------------------------------------------------------|
C|----------------------------------------------------------------------------|
G|-------------------------4--0-0-0-0-0-0-----------------------3ph--1-1-1----|
D|----1/6----3-6---5---1------0-0-0-0-0-0--1/6----3-6---5---1--------1-1-1----|1x
                              * * * * * *                            * * *
  [3:30]
D|-------------------------------------------------------------------------------------|
A|-------------------------------------------------------------------------------------|
F|-------------------------------------------------------------------------------------|
C|-------------------------------------------------------------------------------------|
G|---------------------------4--0-0-0-0-0-0--------------------------3ph--0-0-0-0-0----|
D|----1/6----3--6---5----1------0-0-0-0-0-0--1/6----3--6----5----1--------0-0-0-0-0----|1x
                                * * * * * *                               * * * * *
            

Thank you very much for your interest in our article. We hope this information is of great value to you.

Leave a Reply

Your email address will not be published. Required fields are marked *