Home » Justin Bieber – Friends Tabs | Ver. 1 | The site that provides the most complete music chords

Justin Bieber – Friends Tabs | Ver. 1 | The site that provides the most complete music chords

by Andy Frank

Are you looking for a topic Justin Bieber – Friends Tabs | Ver. 1
right? If so, then you can watch it right here.

Justin Bieber – Friends Tabs | Ver. 1
| You can find many other song chords here

Australia.xemloibaihat.com | Justin Bieber – Friends Tabs | Ver. 1


[Verse 1]
 
e|----------------------------------------------------------|
B|-----------------1--0-----------------1-------------------|
G|----0-0---------2--0---0-0----------2---------------------|
D|--2----0-0-0-2-------2----0-0--0--------------------------| X2
A|-----------3----0---------------3--3-0--------------------|
E|-1------------------3-------------------------------------|
 
e|----------------------------------------------------------|
B|---------------0-0----------------------0-0---------------|
G|--0-2-2-2-2-0------2----0-2-2-2-2-0------2----------------|
D|-3------------------2-2---------------------2--2----------|
A|-------------------0------------------------0-------------|
E|-1-----------------------3--------------------------------|
 
e|-------------------------------------------------------------|
B|-----------3-0-----------------------------0-0--3-3-3-1------|
G|--0-2-2-2----2-0-0-----2----0-2-2-2-2-0----------------------|
D|-3----------------------2-2----------------------------------|
A|-----------------------0------------------------0------------|
E|-1----------------------------3------------------------------|
 
e|--------------0--------------------0----------------------|
B|--------1-0---0---1--------1-0----0----1-0----------------|
G|----2-------------------0---------------------------------|
D|--3--3------3---------0-0-------0-----2-------------------|
A|-----------------0--------------------0-------------------|
E|-1-----1---1---------3----3----3--------------------------|
 
e|--------------0--------------------------0--------------|
B|--------1-0---0---1--------1-1-3-3------0-0-1-----------|
G|-2--2-------------------0------------0------------------|
D|--3--3------3---------0-0-------------------------------|
A|-----------------0--------------------------------------|
E|-1-----1---1---------3----3--------3--------------------|
 
e|-0-----------------------------0--------------------0--------|
B|--3-3-1-------------------------3-3-1---------------0-0-1----|
G|--------2-0-0--0----------------------2-0-0-0----------------|
D|------------------2-2-0------------------------2-2-----------| X2
A|------------------------3-0-0------------------------0-------|
E|-1--------------1--------------3--------------3--------------|
 
e|----------------------------------------------------------|
B|-----------------1--0-----------------1-------------------|
G|----0-0---------2--0---0-0----------2---------------------|
D|--2----0-0-0-2-------2----0-0--0--------------------------| X2
A|-----------3----0---------------3--3-0--------------------|
E|-1------------------3-------------------------------------|
 
e|----------------------------------------------------------|
B|---------------0-0----------------------0-0---------------|
G|--0-2-2-2-2-0------2----0-2-2-2-2-0------2----------------|
D|-3------------------2-2---------------------2--2----------|
A|-------------------0------------------------0-------------|
E|-1-----------------------3--------------------------------|
 
e|-------------------------------------------------------------|
B|-----------3-0-----------------------------0-0--3-3-3-1------|
G|--0-2-2-2----2-0-0-----2----0-2-2-2-2-0----------------------|
D|-3----------------------2-2----------------------------------|
A|-----------------------0------------------------0------------|
E|-1----------------------------3------------------------------|
 
e|--------------0--------------------0----------------------|
B|--------1-0---0---1--------1-0----0----1-0----------------|
G|----2-------------------0---------------------------------|
D|--3--3------3---------0-0-------0-----2-------------------|
A|-----------------0--------------------0-------------------|
E|-1-----1---1---------3----3----3--------------------------|
 
e|--------------0--------------------------0--------------|
B|--------1-0---0---1--------1-1-3-3------0-0-1-----------|
G|-2--2-------------------0------------0------------------|
D|--3--3------3---------0-0-------------------------------|
A|-----------------0--------------------------------------|
E|-1-----1---1---------3----3--------3--------------------|
 
e|-0-----------------------------0--------------------0--------|
B|--3-3-1-------------------------3-3-1---------------0-0-1----|
G|--------2-0-0--0----------------------2-0-0-0----------------|
D|------------------2-2-0------------------------2-2-----------| X2
A|------------------------3-0-0------------------------0-------|
E|-1--------------1--------------3--------------3--------------|
 
e|----------------------------------------------------------|
B|---------------0-0----------------------0-0---------------|
G|--0-2-2-2-2-0------2----0-2-2-2-2-0------2----------------|
D|-3------------------2-2---------------------2--2----------|
A|-------------------0------------------------0-------------|
E|-1-----------------------3--------------------------------|
 
e|--------------------------------------------------------------|
B|-----------3-0-----------------------------0-0--3-3-3-1-------|
G|--0-2-2-2----2-0-0-----2----0-2-2-2-2-0-----------------------|
D|-3----------------------2-2-----------------------------------|
A|-----------------------0------------------------0-------------|
E|-1----------------------------3-------------------------------|
 
e|--------------0--------------------0---------------------|
B|--------1-0---0---1--------1-0----0----1-0---------------|
G|----2-------------------0--------------------------------|
D|--3--3------3---------0-0-------0-----2------------------|
A|-----------------0--------------------0------------------|
E|-1-----1---1---------3----3----3-------------------------|
 
e|--------------0--------------------------0--------------|
B|--------1-0---0---1--------1-1-3-3------0-0-1-----------|
G|-2--2-------------------0------------0------------------|
D|--3--3------3---------0-0-------------------------------|
A|-----------------0--------------------------------------|
E|-1-----1---1---------3----3--------3--------------------|
            

You can find more useful information here: See more

Justin Bieber – Friends Tabs | Ver. 1
And searches related to this topic

#Justin #Bieber #Friends #Tabs #Ver

Justin Bieber – Friends Tabs | Ver. 1

>>See more useful information provided by us here: More info here.

Review the information related to the topic Justin Bieber – Friends Tabs | Ver. 1
again

Australia.xemloibaihat.com | Justin Bieber – Friends Tabs | Ver. 1


[Verse 1]
 
e|----------------------------------------------------------|
B|-----------------1--0-----------------1-------------------|
G|----0-0---------2--0---0-0----------2---------------------|
D|--2----0-0-0-2-------2----0-0--0--------------------------| X2
A|-----------3----0---------------3--3-0--------------------|
E|-1------------------3-------------------------------------|
 
e|----------------------------------------------------------|
B|---------------0-0----------------------0-0---------------|
G|--0-2-2-2-2-0------2----0-2-2-2-2-0------2----------------|
D|-3------------------2-2---------------------2--2----------|
A|-------------------0------------------------0-------------|
E|-1-----------------------3--------------------------------|
 
e|-------------------------------------------------------------|
B|-----------3-0-----------------------------0-0--3-3-3-1------|
G|--0-2-2-2----2-0-0-----2----0-2-2-2-2-0----------------------|
D|-3----------------------2-2----------------------------------|
A|-----------------------0------------------------0------------|
E|-1----------------------------3------------------------------|
 
e|--------------0--------------------0----------------------|
B|--------1-0---0---1--------1-0----0----1-0----------------|
G|----2-------------------0---------------------------------|
D|--3--3------3---------0-0-------0-----2-------------------|
A|-----------------0--------------------0-------------------|
E|-1-----1---1---------3----3----3--------------------------|
 
e|--------------0--------------------------0--------------|
B|--------1-0---0---1--------1-1-3-3------0-0-1-----------|
G|-2--2-------------------0------------0------------------|
D|--3--3------3---------0-0-------------------------------|
A|-----------------0--------------------------------------|
E|-1-----1---1---------3----3--------3--------------------|
 
e|-0-----------------------------0--------------------0--------|
B|--3-3-1-------------------------3-3-1---------------0-0-1----|
G|--------2-0-0--0----------------------2-0-0-0----------------|
D|------------------2-2-0------------------------2-2-----------| X2
A|------------------------3-0-0------------------------0-------|
E|-1--------------1--------------3--------------3--------------|
 
e|----------------------------------------------------------|
B|-----------------1--0-----------------1-------------------|
G|----0-0---------2--0---0-0----------2---------------------|
D|--2----0-0-0-2-------2----0-0--0--------------------------| X2
A|-----------3----0---------------3--3-0--------------------|
E|-1------------------3-------------------------------------|
 
e|----------------------------------------------------------|
B|---------------0-0----------------------0-0---------------|
G|--0-2-2-2-2-0------2----0-2-2-2-2-0------2----------------|
D|-3------------------2-2---------------------2--2----------|
A|-------------------0------------------------0-------------|
E|-1-----------------------3--------------------------------|
 
e|-------------------------------------------------------------|
B|-----------3-0-----------------------------0-0--3-3-3-1------|
G|--0-2-2-2----2-0-0-----2----0-2-2-2-2-0----------------------|
D|-3----------------------2-2----------------------------------|
A|-----------------------0------------------------0------------|
E|-1----------------------------3------------------------------|
 
e|--------------0--------------------0----------------------|
B|--------1-0---0---1--------1-0----0----1-0----------------|
G|----2-------------------0---------------------------------|
D|--3--3------3---------0-0-------0-----2-------------------|
A|-----------------0--------------------0-------------------|
E|-1-----1---1---------3----3----3--------------------------|
 
e|--------------0--------------------------0--------------|
B|--------1-0---0---1--------1-1-3-3------0-0-1-----------|
G|-2--2-------------------0------------0------------------|
D|--3--3------3---------0-0-------------------------------|
A|-----------------0--------------------------------------|
E|-1-----1---1---------3----3--------3--------------------|
 
e|-0-----------------------------0--------------------0--------|
B|--3-3-1-------------------------3-3-1---------------0-0-1----|
G|--------2-0-0--0----------------------2-0-0-0----------------|
D|------------------2-2-0------------------------2-2-----------| X2
A|------------------------3-0-0------------------------0-------|
E|-1--------------1--------------3--------------3--------------|
 
e|----------------------------------------------------------|
B|---------------0-0----------------------0-0---------------|
G|--0-2-2-2-2-0------2----0-2-2-2-2-0------2----------------|
D|-3------------------2-2---------------------2--2----------|
A|-------------------0------------------------0-------------|
E|-1-----------------------3--------------------------------|
 
e|--------------------------------------------------------------|
B|-----------3-0-----------------------------0-0--3-3-3-1-------|
G|--0-2-2-2----2-0-0-----2----0-2-2-2-2-0-----------------------|
D|-3----------------------2-2-----------------------------------|
A|-----------------------0------------------------0-------------|
E|-1----------------------------3-------------------------------|
 
e|--------------0--------------------0---------------------|
B|--------1-0---0---1--------1-0----0----1-0---------------|
G|----2-------------------0--------------------------------|
D|--3--3------3---------0-0-------0-----2------------------|
A|-----------------0--------------------0------------------|
E|-1-----1---1---------3----3----3-------------------------|
 
e|--------------0--------------------------0--------------|
B|--------1-0---0---1--------1-1-3-3------0-0-1-----------|
G|-2--2-------------------0------------0------------------|
D|--3--3------3---------0-0-------------------------------|
A|-----------------0--------------------------------------|
E|-1-----1---1---------3----3--------3--------------------|
            

Thank you very much for your interest in our article. We hope this information is of great value to you.

READ  Eppu Normaali - Musiikkia Rantalasta Chords | Ver. 1 | The site that provides the most complete music chords

You may also like

Leave a Comment