Home » KESHI – Skeletons Guitar Tabs | The site that provides the most complete music chords

KESHI – Skeletons Guitar Tabs | The site that provides the most complete music chords

Are you looking for a topic KESHI – Skeletons Guitar Tabs right? If so, then you can watch it right here.

Table of Contents

KESHI – Skeletons Guitar Tabs | You can find many other song chords here

 
Original Key: B Minor
Time Signature: 4/4
Tempo: 80
Suggested Strumming: DU,DU,DU,DU
c h o r d  z o n e . o r g
 
E |-------|-----2----------------------|
B |-------|--3-------------------------|
G |-------|----------------------------|
D |-------|----------------------------|
A |-------|----------------------------|
E |-------|----------------------------|


-----------------------0--0-----0--0--0-------------|
--------------------3--------------------3--3--3----|
----------------------------------------------------|
----------------------------------------------------|
----------------------------------------------------|
----------------------------------------------------|


-----2----------------------|
--3-------------------------|
----------------------------|
----------------------------|
----------------------------|
----------------------------|


Australia.xemloibaihat.com
 
-----------------------0--5-----5-----5--2--2--0----|
--------------------3-------------------------------|
----------------------------------------------------|
----------------------------------------------------|
----------------------------------------------------|
----------------------------------------------------|


--0--------------------0--5-----5-----5--2--2--0----|
--------3-----------3-------------------------------|
----------------------------------------------------|
----------------------------------------------------|
----------------------------------------------------|
----------------------------------------------------|


--0--------------0--2--3--2-------------------------|
--------3-----------------------------3--3--3-------|
----------------------------------------------------|
----------------------------------------------------|
----------------------------------------------------|
----------------------------------------------------|


-----2-----5--3-----2--0----|-----------5--3-----2--0----|
--3-------------------------|----------------------------|
----------------------------|----------------------------|
----------------------------|----------------------------|
----------------------------|----------------------------|
----------------------------|----------------------------|


--2-----2--------0--0--------0--0--0--0-------------|
--------------3-----------3-----------------3-------|
----------------------------------------------------|
----------------------------------------------------|
----------------------------------------------------|
----------------------------------------------------|


--2-----2--------0--0--------0--0--0--0-------------|
--------------3-----------3-----------------3-------|
----------------------------------------------------|
----------------------------------------------------|
----------------------------------------------------|
----------------------------------------------------|


-----0--0--------------------0--0-------------------|
--3-----------------------3-------------------------|
----------------------------------------------------|
----------------------------------------------------|
----------------------------------------------------|
----------------------------------------------------|


-----0--0--------------0--2--3-----2--0--------0----|
--3-----------------3-----------------------3-------|
----------------------------------------------------|
----------------------------------------------------|
----------------------------------------------------|
----------------------------------------------------|


Australia.xemloibaihat.com
 
--0-----------------5-----3-----------2-----0-------|
-----------3----------------------------------------|
----------------------------------------------------|
----------------------------------------------------|
----------------------------------------------------|
----------------------------------------------------|


--------------------------2--3--2--0--0-----0-------|
-----------------------------------------3----------|
----------------------------------------------------|
----------------------------------------------------|
----------------------------------------------------|
----------------------------------------------------|


--0-------------------------------------------------|
-----------3L-3-------------------------------------|
----------------------------------------------------|
----------------------------------------------------|
----------------------------------------------------|
----------------------------------------------------|


--------------------------5-----5--5--2-----0--0----|
--------------------3-------------------------------|
----------------------------------------------------|
----------------------------------------------------|
----------------------------------------------------|
----------------------------------------------------|


--0-----------------5-----3-----------2-----0-------|
-----------3----------------------------------------|
----------------------------------------------------|
----------------------------------------------------|
----------------------------------------------------|
----------------------------------------------------|


-----------------------0--2-----3--2--0--------0----|
--------------------3-----------------------3-------|
----------------------------------------------------|
----------------------------------------------------|
----------------------------------------------------|
----------------------------------------------------|


--0-------------------------------------------------|
-----------3L-3-----------------------------3-------|
----------------------------------------------------|
----------------------------------------------------|
----------------------------------------------------|
----------------------------------------------------|


--0-------------------------------------------------|
-----------3L-3--------------------------3--3-------|
----------------------------------------------------|
----------------------------------------------------|
----------------------------------------------------|
----------------------------------------------------|


--5-----------------3--2L-2-------------------------|
----------------------------------------------------|
----------------------------------------------------|
----------------------------------------------------|
----------------------------------------------------|
----------------------------------------------------|


--5-----------------3--2L-2-----------2--3--2-------|
----------------------------------------------------|
----------------------------------------------------|
----------------------------------------------------|
----------------------------------------------------|
----------------------------------------------------|


--0-----------------------------------2--3--2-------|
--------3-----3-------------------------------------|
----------------------------------------------------|
----------------------------------------------------|
----------------------------------------------------|
----------------------------------------------------|


--0-----------------5-----3-----------2-------------|
--------3-----3-----------------------------3--3----|
----------------------------------------------------|
----------------------------------------------------|
----------------------------------------------------|
----------------------------------------------------|


--5-----------------3--2L-2-------------------------|
----------------------------------------------------|
----------------------------------------------------|
----------------------------------------------------|
----------------------------------------------------|
----------------------------------------------------|


--5-----3--2--0-----2--------------------0-----2----|
--------------------------3-----------3-------------|
----------------------------------------------------|
----------------------------------------------------|
----------------------------------------------------|
----------------------------------------------------|


--2-----0--0-----2L-------2-----------2--2--3-------|
----------------------------------------------------|
----------------------------------------------------|
----------------------------------------------------|
----------------------------------------------------|
----------------------------------------------------|


--2-------------------------------------------------||
--------3--3L-3-------------------------------------||
----------------------------------------------------||
----------------------------------------------------||
----------------------------------------------------||
----------------------------------------------------||


You can find more useful information here: Australia.xemloibaihat.com/chord

See also  PREMIERE: Akajiaku - Jonah | | The site that provides the most complete music chords

KESHI – Skeletons Guitar Tabs And searches related to this topic

#KESHI #Skeletons #Guitar #Tabs

KESHI – Skeletons Guitar Tabs

>>See more useful information provided by us here: Australia.xemloibaihat.com.

Review the information related to the topic KESHI – Skeletons Guitar Tabs again

 
Original Key: B Minor
Time Signature: 4/4
Tempo: 80
Suggested Strumming: DU,DU,DU,DU
c h o r d  z o n e . o r g
 
E |-------|-----2----------------------|
B |-------|--3-------------------------|
G |-------|----------------------------|
D |-------|----------------------------|
A |-------|----------------------------|
E |-------|----------------------------|


-----------------------0--0-----0--0--0-------------|
--------------------3--------------------3--3--3----|
----------------------------------------------------|
----------------------------------------------------|
----------------------------------------------------|
----------------------------------------------------|


-----2----------------------|
--3-------------------------|
----------------------------|
----------------------------|
----------------------------|
----------------------------|


Australia.xemloibaihat.com
 
-----------------------0--5-----5-----5--2--2--0----|
--------------------3-------------------------------|
----------------------------------------------------|
----------------------------------------------------|
----------------------------------------------------|
----------------------------------------------------|


--0--------------------0--5-----5-----5--2--2--0----|
--------3-----------3-------------------------------|
----------------------------------------------------|
----------------------------------------------------|
----------------------------------------------------|
----------------------------------------------------|


--0--------------0--2--3--2-------------------------|
--------3-----------------------------3--3--3-------|
----------------------------------------------------|
----------------------------------------------------|
----------------------------------------------------|
----------------------------------------------------|


-----2-----5--3-----2--0----|-----------5--3-----2--0----|
--3-------------------------|----------------------------|
----------------------------|----------------------------|
----------------------------|----------------------------|
----------------------------|----------------------------|
----------------------------|----------------------------|


--2-----2--------0--0--------0--0--0--0-------------|
--------------3-----------3-----------------3-------|
----------------------------------------------------|
----------------------------------------------------|
----------------------------------------------------|
----------------------------------------------------|


--2-----2--------0--0--------0--0--0--0-------------|
--------------3-----------3-----------------3-------|
----------------------------------------------------|
----------------------------------------------------|
----------------------------------------------------|
----------------------------------------------------|


-----0--0--------------------0--0-------------------|
--3-----------------------3-------------------------|
----------------------------------------------------|
----------------------------------------------------|
----------------------------------------------------|
----------------------------------------------------|


-----0--0--------------0--2--3-----2--0--------0----|
--3-----------------3-----------------------3-------|
----------------------------------------------------|
----------------------------------------------------|
----------------------------------------------------|
----------------------------------------------------|


Australia.xemloibaihat.com
 
--0-----------------5-----3-----------2-----0-------|
-----------3----------------------------------------|
----------------------------------------------------|
----------------------------------------------------|
----------------------------------------------------|
----------------------------------------------------|


--------------------------2--3--2--0--0-----0-------|
-----------------------------------------3----------|
----------------------------------------------------|
----------------------------------------------------|
----------------------------------------------------|
----------------------------------------------------|


--0-------------------------------------------------|
-----------3L-3-------------------------------------|
----------------------------------------------------|
----------------------------------------------------|
----------------------------------------------------|
----------------------------------------------------|


--------------------------5-----5--5--2-----0--0----|
--------------------3-------------------------------|
----------------------------------------------------|
----------------------------------------------------|
----------------------------------------------------|
----------------------------------------------------|


--0-----------------5-----3-----------2-----0-------|
-----------3----------------------------------------|
----------------------------------------------------|
----------------------------------------------------|
----------------------------------------------------|
----------------------------------------------------|


-----------------------0--2-----3--2--0--------0----|
--------------------3-----------------------3-------|
----------------------------------------------------|
----------------------------------------------------|
----------------------------------------------------|
----------------------------------------------------|


--0-------------------------------------------------|
-----------3L-3-----------------------------3-------|
----------------------------------------------------|
----------------------------------------------------|
----------------------------------------------------|
----------------------------------------------------|


--0-------------------------------------------------|
-----------3L-3--------------------------3--3-------|
----------------------------------------------------|
----------------------------------------------------|
----------------------------------------------------|
----------------------------------------------------|


--5-----------------3--2L-2-------------------------|
----------------------------------------------------|
----------------------------------------------------|
----------------------------------------------------|
----------------------------------------------------|
----------------------------------------------------|


--5-----------------3--2L-2-----------2--3--2-------|
----------------------------------------------------|
----------------------------------------------------|
----------------------------------------------------|
----------------------------------------------------|
----------------------------------------------------|


--0-----------------------------------2--3--2-------|
--------3-----3-------------------------------------|
----------------------------------------------------|
----------------------------------------------------|
----------------------------------------------------|
----------------------------------------------------|


--0-----------------5-----3-----------2-------------|
--------3-----3-----------------------------3--3----|
----------------------------------------------------|
----------------------------------------------------|
----------------------------------------------------|
----------------------------------------------------|


--5-----------------3--2L-2-------------------------|
----------------------------------------------------|
----------------------------------------------------|
----------------------------------------------------|
----------------------------------------------------|
----------------------------------------------------|


--5-----3--2--0-----2--------------------0-----2----|
--------------------------3-----------3-------------|
----------------------------------------------------|
----------------------------------------------------|
----------------------------------------------------|
----------------------------------------------------|


--2-----0--0-----2L-------2-----------2--2--3-------|
----------------------------------------------------|
----------------------------------------------------|
----------------------------------------------------|
----------------------------------------------------|
----------------------------------------------------|


--2-------------------------------------------------||
--------3--3L-3-------------------------------------||
----------------------------------------------------||
----------------------------------------------------||
----------------------------------------------------||
----------------------------------------------------||


Thank you very much for your interest in our article. We hope this information is of great value to you.

See also  Derivakat - 4Am Chords | Ver. 1 | The site that provides the most complete music chords

Leave a Reply

Your email address will not be published.