MAROON 5 feat FUTURE – Cold Guitar Tabs | The site that provides the most complete music chords

Are you looking for a topic MAROON 5 feat FUTURE – Cold Guitar Tabs right? If so, then you can watch it right here.

MAROON 5 feat FUTURE – Cold Guitar Tabs | You can find many other song chords here

 
Original Key: A Minor
Time Signature: 4/4
Tempo: 100
Suggested Strumming: DU,DU,DU,DU
c h o r d  z o n e . o r g

Legend
L - tied note
x - dead note
h - hammer on/pull off
b - bend
s - slide
~ - vibrato
g - ghost note
> - accentuated note
t - trill
M - palm mute
. - staccato
P - popping (bass)
S - slapping (bass)
+ - tapping
W - wide vibrato
< - fade in
w - whammy bar
= - tremolo picking
v - brush up
^ - brush down
V - pick stroke up
n - pick stroke down


E |-------|-----------------------0L-0-------------------------|
B |-------|--3-----------------1-----------------1--3----------|
G |-------|-----------------------------2----------------------|
D |-------|----------------------------------------------------|
A |-------|----------------------------------------------------|
E |-------|----------------------------------------------------|


-----------------------1L-1--0----------------------|
--3-----------------1--------------3L-3--1----------|
----------------------------------------------------|
----------------------------------------------------|
----------------------------------------------------|
----------------------------------------------------|


--0-------------------------------------------------|
--------------1--3--3L----3-------------------------|
-----------2----------------------------------------|
----------------------------------------------------|
----------------------------------------------------|
----------------------------------------------------|


--8--7-----5-----3-----0L-0-------------------------|
-----------------------------1--------1--3----------|
----------------------------------------------------|
----------------------------------------------------|
----------------------------------------------------|
----------------------------------------------------|


-----------------------0L-0-------------------------|
--3-----------------1-----------------1--3----------|
-----------------------------2----------------------|
----------------------------------------------------|
----------------------------------------------------|
----------------------------------------------------|


-----------------------1L-1--0----------------------|
--3-----------------1--------------3L-3--1----------|
----------------------------------------------------|
----------------------------------------------------|
----------------------------------------------------|
----------------------------------------------------|


--0-------------------------------------------------|
--------------1--3--3L----3-------------------------|
-----------2----------------------------------------|
----------------------------------------------------|
----------------------------------------------------|
----------------------------------------------------|


--8--7-----5-----3-----0L-0-------------------------|
-----------------------------1--------1--3----------|
----------------------------------------------------|
----------------------------------------------------|
----------------------------------------------------|
----------------------------------------------------|


----------------------------------------------------|
--1-------------------------------------------------|
--------------2--2--2--2--2-----2--2--2L-2--0L------|
----------------------------------------------------|
----------------------------------------------------|
----------------------------------------------------|


----------------------------------------------------|
-----------3-----3-----3--0-----------1-------------|
--0-----------------------------2-------------------|
----------------------------------------------------|
----------------------------------------------------|
----------------------------------------------------|


----------------------------------------------------|
----------------------------------------------------|
--------------2--2--2--2--2-----2--2--2L-2--0L------|
----------------------------------------------------|
----------------------------------------------------|
----------------------------------------------------|


----------------------------------------------------|
-----------3-----3-----3--0-----------1-------------|
--0-----------------------------2-------------------|
----------------------------------------------------|
----------------------------------------------------|
----------------------------------------------------|


--5--5--5--5-----0-----0-----------------0----------|
--------------------------3--1--------3-------------|
----------------------------------------------------|
----------------------------------------------------|
----------------------------------------------------|
----------------------------------------------------|


----------------------------------------------------|
--3--3--3--3-----3-----3--0-----------1-------------|
--------------------------------2-------------------|
----------------------------------------------------|
----------------------------------------------------|
----------------------------------------------------|


--5--5--5--5-----0-----0-----------------0----------|
--------------------------3--1--------3-------------|
----------------------------------------------------|
----------------------------------------------------|
----------------------------------------------------|
----------------------------------------------------|


----------------------------------------------------|
--3--3--3--3-----3-----3--0-----------1-------------|
--------------------------------2-------------------|
----------------------------------------------------|
----------------------------------------------------|
----------------------------------------------------|


----------------------------------------------------|
----------------------------------------------------|
--2-----------2-----------------------0--2----------|
----------------------------------------------------|
----------------------------------------------------|
----------------------------------------------------|


----------------------------------------------------|
----------------------------------------------------|
--2-----------2-----------------------0--2----------|
----------------------------------------------------|
----------------------------------------------------|
----------------------------------------------------|


----------------------------------------------------|
-----------------------------------------------0----|
--2-----------2-----------------------------2-------|
----------------------------------------------------|
----------------------------------------------------|
----------------------------------------------------|


----------------------------------------------------|
--1--0-----------0-----1-----0----------------------|
-----------2-----------------------0L-0L-0----------|
----------------------------------------------------|
----------------------------------------------------|
----------------------------------------------------|


-----------------------0L-0-------------------------|
--3-----------------1-----------------1--3----------|
-----------------------------2----------------------|
----------------------------------------------------|
----------------------------------------------------|
----------------------------------------------------|


-----------------------1L-1--0----------------------|
--3-----------------1--------------3L-3--1----------|
----------------------------------------------------|
----------------------------------------------------|
----------------------------------------------------|
----------------------------------------------------|


--0-------------------------------------------------|
--------------1--3--3L----3-------------------------|
-----------2----------------------------------------|
----------------------------------------------------|
----------------------------------------------------|
----------------------------------------------------|


--8--7-----5-----3-----0L-0-------------------------|
-----------------------------1--------1--3----------|
----------------------------------------------------|
----------------------------------------------------|
----------------------------------------------------|
----------------------------------------------------|


-----------------------0L-0-------------------------|
--3-----------------1-----------------1--3----------|
-----------------------------2----------------------|
----------------------------------------------------|
----------------------------------------------------|
----------------------------------------------------|


-----------------------1L-1--0----------------------|
--3-----------------1--------------3L-3--1----------|
----------------------------------------------------|
----------------------------------------------------|
----------------------------------------------------|
----------------------------------------------------|


--0-------------------------------------------------|
--------------1--3--3L----3-------------------------|
-----------2----------------------------------------|
----------------------------------------------------|
----------------------------------------------------|
----------------------------------------------------|

Australia.xemloibaihat.com
 

--8--7-----5-----3-----0L-0-------------------------|----------------|-------|
-----------------------------1--------1--3----------|--1-------------|-------|
----------------------------------------------------|----------------|-------|
----------------------------------------------------|----------------|-------|
----------------------------------------------------|----------------|-------|
----------------------------------------------------|----------------|-------|


-----------------------0L-0-------------------------|
--3-----------------1-----------------1--3----------|
-----------------------------2----------------------|
----------------------------------------------------|
----------------------------------------------------|
----------------------------------------------------|


-----------------------1L-1--0----------------------|
--3-----------------1--------------3L-3--1----------|
----------------------------------------------------|
----------------------------------------------------|
----------------------------------------------------|
----------------------------------------------------|


--0-------------------------------------------------|
--------------1--3--3L----3-------------------------|
-----------2----------------------------------------|
----------------------------------------------------|
----------------------------------------------------|
----------------------------------------------------|


--8--7-----5-----3-----0L-0-------------------------|
-----------------------------1--------1--3----------|
----------------------------------------------------|
----------------------------------------------------|
----------------------------------------------------|
----------------------------------------------------|


-----------------------0L-0-------------------------|
--3-----------------1-----------------1--3----------|
-----------------------------2----------------------|
----------------------------------------------------|
----------------------------------------------------|
----------------------------------------------------|


-----------------------1L-1--0----------------------|
--3-----------------1--------------3L-3--1----------|
----------------------------------------------------|
----------------------------------------------------|
----------------------------------------------------|
----------------------------------------------------|


--0-------------------------------------------------|
--------------1--3--3L----3-------------------------|
-----------2----------------------------------------|
----------------------------------------------------|
----------------------------------------------------|
----------------------------------------------------|


--8--7-----5-----3-----0L-0-------------------------|
-----------------------------1--------1--3----------|
----------------------------------------------------|
----------------------------------------------------|
----------------------------------------------------|
----------------------------------------------------|


----------------------------------------------------|
--1-------------------------------------------------|
--------------2--2--2--2--2-----2--2--2L-2--0L------|
----------------------------------------------------|
----------------------------------------------------|
----------------------------------------------------|


----------------------------------------------------|
-----------3-----3-----3--0-----------1-------------|
--0-----------------------------2-------------------|
----------------------------------------------------|
----------------------------------------------------|
----------------------------------------------------|


----------------------------------------------------|
----------------------------------------------------|
--------------2--2--2--2--2-----2--2--2L-2--0L------|
----------------------------------------------------|
----------------------------------------------------|
----------------------------------------------------|


----------------------------------------------------|
-----------3-----3-----3--0-----------1-------------|
--0-----------------------------2-------------------|
----------------------------------------------------|
----------------------------------------------------|
----------------------------------------------------|


--5--5--5--5-----0-----0-----------------0----------|
--------------------------3--1--------3-------------|
----------------------------------------------------|
----------------------------------------------------|
----------------------------------------------------|
----------------------------------------------------|


----------------------------------------------------|
--3--3--3--3-----3-----3--0-----------1-------------|
--------------------------------2-------------------|
----------------------------------------------------|
----------------------------------------------------|
----------------------------------------------------|


--5--5--5--5-----0-----0-----------------0----------|
--------------------------3--1--------3-------------|
----------------------------------------------------|
----------------------------------------------------|
----------------------------------------------------|
----------------------------------------------------|


----------------------------------------------------|
--3--3--3--3-----3-----3--0-----------1-------------|
--------------------------------2-------------------|
----------------------------------------------------|
----------------------------------------------------|
----------------------------------------------------|


----------------------------------------------------|
----------------------------------------------------|
--2-----------2-----------------------0--2----------|
----------------------------------------------------|
----------------------------------------------------|
----------------------------------------------------|


----------------------------------------------------|
----------------------------------------------------|
--2-----------2-----------------------0--2----------|
----------------------------------------------------|
----------------------------------------------------|
----------------------------------------------------|


----------------------------------------------------|
-----------------------------------------------0----|
--2-----------2-----------------------------2-------|
----------------------------------------------------|
----------------------------------------------------|
----------------------------------------------------|


----------------------------------------------------|
--1--0-----------0-----1-----0----------------------|
-----------2-----------------------0L-0L-0----------|
----------------------------------------------------|
----------------------------------------------------|
----------------------------------------------------|


-----------------------0L-0-------------------------|
--3-----------------1-----------------1--3----------|
-----------------------------2----------------------|
----------------------------------------------------|
----------------------------------------------------|
----------------------------------------------------|


-----------------------1L-1--0----------------------|
--3-----------------1--------------3L-3--1----------|
----------------------------------------------------|
----------------------------------------------------|
----------------------------------------------------|
----------------------------------------------------|


--0-------------------------------------------------|
--------------1--3--3L----3-------------------------|
-----------2----------------------------------------|
----------------------------------------------------|
----------------------------------------------------|
----------------------------------------------------|


--8--7-----5-----3-----0L-0-------------------------|
-----------------------------1--------1--3----------|
----------------------------------------------------|
----------------------------------------------------|
----------------------------------------------------|
----------------------------------------------------|


-----------------------0L-0-------------------------|
--3-----------------1-----------------1--3----------|
-----------------------------2----------------------|
----------------------------------------------------|
----------------------------------------------------|
----------------------------------------------------|

Australia.xemloibaihat.com
 

-----------------------1L-1--0----------------------|
--3-----------------1--------------3L-3--1----------|
----------------------------------------------------|
----------------------------------------------------|
----------------------------------------------------|
----------------------------------------------------|


--0-------------------------------------------------|
--------------1--3--3L----3-------------------------|
-----------2----------------------------------------|
----------------------------------------------------|
----------------------------------------------------|
----------------------------------------------------|


--8--7-----5-----3-----0L-0-------------------------|----------------||
-----------------------------1--------1--3----------|--1-------------||
----------------------------------------------------|----------------||
----------------------------------------------------|----------------||
----------------------------------------------------|----------------||
----------------------------------------------------|----------------||


You can find more useful information here: https://australia.xemloibaihat.com/chord

MAROON 5 feat FUTURE – Cold Guitar Tabs And searches related to this topic

#MAROON #feat #FUTURE #Cold #Guitar #Tabs

MAROON 5 feat FUTURE – Cold Guitar Tabs

>>See more useful information provided by us here: https://australia.xemloibaihat.com.

Review the information related to the topic MAROON 5 feat FUTURE – Cold Guitar Tabs again

 
Original Key: A Minor
Time Signature: 4/4
Tempo: 100
Suggested Strumming: DU,DU,DU,DU
c h o r d  z o n e . o r g

Legend
L - tied note
x - dead note
h - hammer on/pull off
b - bend
s - slide
~ - vibrato
g - ghost note
> - accentuated note
t - trill
M - palm mute
. - staccato
P - popping (bass)
S - slapping (bass)
+ - tapping
W - wide vibrato
< - fade in
w - whammy bar
= - tremolo picking
v - brush up
^ - brush down
V - pick stroke up
n - pick stroke down


E |-------|-----------------------0L-0-------------------------|
B |-------|--3-----------------1-----------------1--3----------|
G |-------|-----------------------------2----------------------|
D |-------|----------------------------------------------------|
A |-------|----------------------------------------------------|
E |-------|----------------------------------------------------|


-----------------------1L-1--0----------------------|
--3-----------------1--------------3L-3--1----------|
----------------------------------------------------|
----------------------------------------------------|
----------------------------------------------------|
----------------------------------------------------|


--0-------------------------------------------------|
--------------1--3--3L----3-------------------------|
-----------2----------------------------------------|
----------------------------------------------------|
----------------------------------------------------|
----------------------------------------------------|


--8--7-----5-----3-----0L-0-------------------------|
-----------------------------1--------1--3----------|
----------------------------------------------------|
----------------------------------------------------|
----------------------------------------------------|
----------------------------------------------------|


-----------------------0L-0-------------------------|
--3-----------------1-----------------1--3----------|
-----------------------------2----------------------|
----------------------------------------------------|
----------------------------------------------------|
----------------------------------------------------|


-----------------------1L-1--0----------------------|
--3-----------------1--------------3L-3--1----------|
----------------------------------------------------|
----------------------------------------------------|
----------------------------------------------------|
----------------------------------------------------|


--0-------------------------------------------------|
--------------1--3--3L----3-------------------------|
-----------2----------------------------------------|
----------------------------------------------------|
----------------------------------------------------|
----------------------------------------------------|


--8--7-----5-----3-----0L-0-------------------------|
-----------------------------1--------1--3----------|
----------------------------------------------------|
----------------------------------------------------|
----------------------------------------------------|
----------------------------------------------------|


----------------------------------------------------|
--1-------------------------------------------------|
--------------2--2--2--2--2-----2--2--2L-2--0L------|
----------------------------------------------------|
----------------------------------------------------|
----------------------------------------------------|


----------------------------------------------------|
-----------3-----3-----3--0-----------1-------------|
--0-----------------------------2-------------------|
----------------------------------------------------|
----------------------------------------------------|
----------------------------------------------------|


----------------------------------------------------|
----------------------------------------------------|
--------------2--2--2--2--2-----2--2--2L-2--0L------|
----------------------------------------------------|
----------------------------------------------------|
----------------------------------------------------|


----------------------------------------------------|
-----------3-----3-----3--0-----------1-------------|
--0-----------------------------2-------------------|
----------------------------------------------------|
----------------------------------------------------|
----------------------------------------------------|


--5--5--5--5-----0-----0-----------------0----------|
--------------------------3--1--------3-------------|
----------------------------------------------------|
----------------------------------------------------|
----------------------------------------------------|
----------------------------------------------------|


----------------------------------------------------|
--3--3--3--3-----3-----3--0-----------1-------------|
--------------------------------2-------------------|
----------------------------------------------------|
----------------------------------------------------|
----------------------------------------------------|


--5--5--5--5-----0-----0-----------------0----------|
--------------------------3--1--------3-------------|
----------------------------------------------------|
----------------------------------------------------|
----------------------------------------------------|
----------------------------------------------------|


----------------------------------------------------|
--3--3--3--3-----3-----3--0-----------1-------------|
--------------------------------2-------------------|
----------------------------------------------------|
----------------------------------------------------|
----------------------------------------------------|


----------------------------------------------------|
----------------------------------------------------|
--2-----------2-----------------------0--2----------|
----------------------------------------------------|
----------------------------------------------------|
----------------------------------------------------|


----------------------------------------------------|
----------------------------------------------------|
--2-----------2-----------------------0--2----------|
----------------------------------------------------|
----------------------------------------------------|
----------------------------------------------------|


----------------------------------------------------|
-----------------------------------------------0----|
--2-----------2-----------------------------2-------|
----------------------------------------------------|
----------------------------------------------------|
----------------------------------------------------|


----------------------------------------------------|
--1--0-----------0-----1-----0----------------------|
-----------2-----------------------0L-0L-0----------|
----------------------------------------------------|
----------------------------------------------------|
----------------------------------------------------|


-----------------------0L-0-------------------------|
--3-----------------1-----------------1--3----------|
-----------------------------2----------------------|
----------------------------------------------------|
----------------------------------------------------|
----------------------------------------------------|


-----------------------1L-1--0----------------------|
--3-----------------1--------------3L-3--1----------|
----------------------------------------------------|
----------------------------------------------------|
----------------------------------------------------|
----------------------------------------------------|


--0-------------------------------------------------|
--------------1--3--3L----3-------------------------|
-----------2----------------------------------------|
----------------------------------------------------|
----------------------------------------------------|
----------------------------------------------------|


--8--7-----5-----3-----0L-0-------------------------|
-----------------------------1--------1--3----------|
----------------------------------------------------|
----------------------------------------------------|
----------------------------------------------------|
----------------------------------------------------|


-----------------------0L-0-------------------------|
--3-----------------1-----------------1--3----------|
-----------------------------2----------------------|
----------------------------------------------------|
----------------------------------------------------|
----------------------------------------------------|


-----------------------1L-1--0----------------------|
--3-----------------1--------------3L-3--1----------|
----------------------------------------------------|
----------------------------------------------------|
----------------------------------------------------|
----------------------------------------------------|


--0-------------------------------------------------|
--------------1--3--3L----3-------------------------|
-----------2----------------------------------------|
----------------------------------------------------|
----------------------------------------------------|
----------------------------------------------------|

Australia.xemloibaihat.com
 

--8--7-----5-----3-----0L-0-------------------------|----------------|-------|
-----------------------------1--------1--3----------|--1-------------|-------|
----------------------------------------------------|----------------|-------|
----------------------------------------------------|----------------|-------|
----------------------------------------------------|----------------|-------|
----------------------------------------------------|----------------|-------|


-----------------------0L-0-------------------------|
--3-----------------1-----------------1--3----------|
-----------------------------2----------------------|
----------------------------------------------------|
----------------------------------------------------|
----------------------------------------------------|


-----------------------1L-1--0----------------------|
--3-----------------1--------------3L-3--1----------|
----------------------------------------------------|
----------------------------------------------------|
----------------------------------------------------|
----------------------------------------------------|


--0-------------------------------------------------|
--------------1--3--3L----3-------------------------|
-----------2----------------------------------------|
----------------------------------------------------|
----------------------------------------------------|
----------------------------------------------------|


--8--7-----5-----3-----0L-0-------------------------|
-----------------------------1--------1--3----------|
----------------------------------------------------|
----------------------------------------------------|
----------------------------------------------------|
----------------------------------------------------|


-----------------------0L-0-------------------------|
--3-----------------1-----------------1--3----------|
-----------------------------2----------------------|
----------------------------------------------------|
----------------------------------------------------|
----------------------------------------------------|


-----------------------1L-1--0----------------------|
--3-----------------1--------------3L-3--1----------|
----------------------------------------------------|
----------------------------------------------------|
----------------------------------------------------|
----------------------------------------------------|


--0-------------------------------------------------|
--------------1--3--3L----3-------------------------|
-----------2----------------------------------------|
----------------------------------------------------|
----------------------------------------------------|
----------------------------------------------------|


--8--7-----5-----3-----0L-0-------------------------|
-----------------------------1--------1--3----------|
----------------------------------------------------|
----------------------------------------------------|
----------------------------------------------------|
----------------------------------------------------|


----------------------------------------------------|
--1-------------------------------------------------|
--------------2--2--2--2--2-----2--2--2L-2--0L------|
----------------------------------------------------|
----------------------------------------------------|
----------------------------------------------------|


----------------------------------------------------|
-----------3-----3-----3--0-----------1-------------|
--0-----------------------------2-------------------|
----------------------------------------------------|
----------------------------------------------------|
----------------------------------------------------|


----------------------------------------------------|
----------------------------------------------------|
--------------2--2--2--2--2-----2--2--2L-2--0L------|
----------------------------------------------------|
----------------------------------------------------|
----------------------------------------------------|


----------------------------------------------------|
-----------3-----3-----3--0-----------1-------------|
--0-----------------------------2-------------------|
----------------------------------------------------|
----------------------------------------------------|
----------------------------------------------------|


--5--5--5--5-----0-----0-----------------0----------|
--------------------------3--1--------3-------------|
----------------------------------------------------|
----------------------------------------------------|
----------------------------------------------------|
----------------------------------------------------|


----------------------------------------------------|
--3--3--3--3-----3-----3--0-----------1-------------|
--------------------------------2-------------------|
----------------------------------------------------|
----------------------------------------------------|
----------------------------------------------------|


--5--5--5--5-----0-----0-----------------0----------|
--------------------------3--1--------3-------------|
----------------------------------------------------|
----------------------------------------------------|
----------------------------------------------------|
----------------------------------------------------|


----------------------------------------------------|
--3--3--3--3-----3-----3--0-----------1-------------|
--------------------------------2-------------------|
----------------------------------------------------|
----------------------------------------------------|
----------------------------------------------------|


----------------------------------------------------|
----------------------------------------------------|
--2-----------2-----------------------0--2----------|
----------------------------------------------------|
----------------------------------------------------|
----------------------------------------------------|


----------------------------------------------------|
----------------------------------------------------|
--2-----------2-----------------------0--2----------|
----------------------------------------------------|
----------------------------------------------------|
----------------------------------------------------|


----------------------------------------------------|
-----------------------------------------------0----|
--2-----------2-----------------------------2-------|
----------------------------------------------------|
----------------------------------------------------|
----------------------------------------------------|


----------------------------------------------------|
--1--0-----------0-----1-----0----------------------|
-----------2-----------------------0L-0L-0----------|
----------------------------------------------------|
----------------------------------------------------|
----------------------------------------------------|


-----------------------0L-0-------------------------|
--3-----------------1-----------------1--3----------|
-----------------------------2----------------------|
----------------------------------------------------|
----------------------------------------------------|
----------------------------------------------------|


-----------------------1L-1--0----------------------|
--3-----------------1--------------3L-3--1----------|
----------------------------------------------------|
----------------------------------------------------|
----------------------------------------------------|
----------------------------------------------------|


--0-------------------------------------------------|
--------------1--3--3L----3-------------------------|
-----------2----------------------------------------|
----------------------------------------------------|
----------------------------------------------------|
----------------------------------------------------|


--8--7-----5-----3-----0L-0-------------------------|
-----------------------------1--------1--3----------|
----------------------------------------------------|
----------------------------------------------------|
----------------------------------------------------|
----------------------------------------------------|


-----------------------0L-0-------------------------|
--3-----------------1-----------------1--3----------|
-----------------------------2----------------------|
----------------------------------------------------|
----------------------------------------------------|
----------------------------------------------------|

Australia.xemloibaihat.com
 

-----------------------1L-1--0----------------------|
--3-----------------1--------------3L-3--1----------|
----------------------------------------------------|
----------------------------------------------------|
----------------------------------------------------|
----------------------------------------------------|


--0-------------------------------------------------|
--------------1--3--3L----3-------------------------|
-----------2----------------------------------------|
----------------------------------------------------|
----------------------------------------------------|
----------------------------------------------------|


--8--7-----5-----3-----0L-0-------------------------|----------------||
-----------------------------1--------1--3----------|--1-------------||
----------------------------------------------------|----------------||
----------------------------------------------------|----------------||
----------------------------------------------------|----------------||
----------------------------------------------------|----------------||


Thank you very much for your interest in our article. We hope this information is of great value to you.

Leave a Reply

Your email address will not be published. Required fields are marked *