Shanes – Julie-Ann Bass | Ver. 1 | The site that provides the most complete music chords

Are you looking for a topic Shanes – Julie-Ann Bass | Ver. 1
right? If so, then you can watch it right here.

Shanes – Julie-Ann Bass | Ver. 1
| You can find many other song chords here

Australia.xemloibaihat.com | Shanes – Julie-Ann Bass | Ver. 1


Tuning: EADG
 
G|------------------------------------------------------------------------------------------------|
D|------------------------------------------------------------------------------------------------|
A|5-----------------------4-----------------------2-----------------------1-------------------1---|
E|------------------------------------------------------------------------------------------------|
 
G|------------------------------------------------------------------------------------------------|
D|------------------------5-----------------------4-------------------4---3-----------------------|
A|0-----------------------------------------------------------------------------------------------|
E|------------------------------------------------------------------------------------------------|
 
0:17
 
G|------------------------------------------------------------------------------------------------|
D|9-----------------------7-----------------------6-------------------6---7-----------------------|
A|------------------------------------------------------------------------------------------------|
E|------------------------------------------------------------------------------------------------|
 
G|------------------------------------------------------------------------------------------------|
D|9-----------------------------------------------------------------------7-----------5-----------|
A|------------------------6-----------------------7-------------------7---------------------------|
E|------------------------------------------------------------------------------------------------|
 
G|------------------------------------------------|
D|------------------------------------------------|
A|5-------------------5---------------------------|
E|------------------------5-----------------------|
 
0:37
 
G|------------------------------------------------------------------------------------------------|
D|------------------------------------------------------------------------------------------------|
A|5-----------------------4-----------------------2-----------------------1-----------------------|
E|------------------------------------------------------------------------------------------------|
 
G|------------------------------------------------------------------------------------------------|
D|------------------------5-----------------------4-----------------4-----3-----------------------|
A|0-----------------------------------------------------------------------------------------------|
E|------------------------------------------------------------------------------------------------|
 
0:53
 
G|------------------------------------------------------------------------------------------------|
D|9-----------------------7-----------------------6-----------------6-----7-----------------------|
A|------------------------------------------------------------------------------------------------|
E|------------------------------------------------------------------------------------------------|
 
G|------------------------------------------------------------------------------------------------|
D|9-----------------------------------------------------------------------7-----------5-------4---|
A|------------------------6-----------------------7-------------------7---------------------------|
E|------------------------------------------------------------------------------------------------|
 
G|------------------------------------------------|
D|------------------------------------------------|
A|5-------------------5---5-----------------------|
E|------------------------------------------------|
 
1:14
 
G|------------------------------------------------------------------------------------------------|
D|4-------------------4---4-----------4---7---8---9-----------7-----------5-----------4-----------|
A|------------------------------------------------------------------------------------------------|
E|------------------------------------------------------------------------------------------------|
 
G|------------------------------------------------------------------------------------------------|
D|----------------------------------------5---6---7-----------5-----------4-----------------------|
A|7-------------------7---7-----------7-----------------------------------------------7-----------|
E|------------------------------------------------------------------------------------------------|
 
1:30
 
G|------------------------------------------------------------------------------------------------|
D|4-----------------------------------4---7---8---9-----------7-----------5-----------4-----------|
A|------------------------------------------------------------------------------------------------|
E|------------------------------------------------------------------------------------------------|
 
G|------------------------------------9-------7---------------------------------------------------|
D|------------------------------------------------7-----------5-----------------------------------|
A|7-------------------7---7-----------------------------------------------7-----------------------|
E|------------------------------------------------------------------------------------5-----------|
 
1:45
 
G|------------------------------------------------------------------------------------------------|
D|------------------------------------------------------------------------------------------------|
A|5-----------------------4-----------------------2-------------------2---1-----------------------|
E|------------------------------------------------------------------------------------------------|
 
G|------------------------------------------------------------------------------------------------|
D|------------------------5-----------------------4-------------------4---3-----------------------|
A|0-----------------------------------------------------------------------------------------------|
E|------------------------------------------------------------------------------------------------|
 
2:01
 
G|------------------------------------------------------------------------------------------------|
D|9-----------------------7-----------------------6-------------------6---7-----------------------|
A|------------------------------------------------------------------------------------------------|
E|------------------------------------------------------------------------------------------------|
 
G|------------------------------------------------------------------------------------------------|
D|9-----------------------------------------------------------------------7-----------5-------4---|
A|------------------------6-----------------------7-----------------------------------------------|
E|------------------------------------------------------------------------------------------------|
 
G|------------------------------------------------|
D|------------------------------------------------|.
A|--------------------5---------------------------|
E|------------------------5-----------------------|
 
2:22
 
G|------------------------------------------------------------------------------------------------|
D|------------------------------------------------------------------------------------------------|
A|5-----------------------4-----------------------2-----------------------1-----------------------|
E|------------------------------------------------------------------------------------------------|
 
G|------------------------------------------------------------------------------------------------|
D|------------------------5-----------------------4-----------------4-----3-----------------------|
A|0-----------------------------------------------------------------------------------------------|
E|------------------------------------------------------------------------------------------------|
 
G|----------------------------------------------------|
D|9-----------------------7-----------------------6---|
A|----------------------------------------------------|
E|----------------------------------------------------|
            

You can find more useful information here: See more here

Shanes – Julie-Ann Bass | Ver. 1
And searches related to this topic

#Shanes #JulieAnn #Bass #Ver

Shanes – Julie-Ann Bass | Ver. 1

>>See more useful information provided by us here: See here.

Review the information related to the topic Shanes – Julie-Ann Bass | Ver. 1
again

Australia.xemloibaihat.com | Shanes – Julie-Ann Bass | Ver. 1


Tuning: EADG
 
G|------------------------------------------------------------------------------------------------|
D|------------------------------------------------------------------------------------------------|
A|5-----------------------4-----------------------2-----------------------1-------------------1---|
E|------------------------------------------------------------------------------------------------|
 
G|------------------------------------------------------------------------------------------------|
D|------------------------5-----------------------4-------------------4---3-----------------------|
A|0-----------------------------------------------------------------------------------------------|
E|------------------------------------------------------------------------------------------------|
 
0:17
 
G|------------------------------------------------------------------------------------------------|
D|9-----------------------7-----------------------6-------------------6---7-----------------------|
A|------------------------------------------------------------------------------------------------|
E|------------------------------------------------------------------------------------------------|
 
G|------------------------------------------------------------------------------------------------|
D|9-----------------------------------------------------------------------7-----------5-----------|
A|------------------------6-----------------------7-------------------7---------------------------|
E|------------------------------------------------------------------------------------------------|
 
G|------------------------------------------------|
D|------------------------------------------------|
A|5-------------------5---------------------------|
E|------------------------5-----------------------|
 
0:37
 
G|------------------------------------------------------------------------------------------------|
D|------------------------------------------------------------------------------------------------|
A|5-----------------------4-----------------------2-----------------------1-----------------------|
E|------------------------------------------------------------------------------------------------|
 
G|------------------------------------------------------------------------------------------------|
D|------------------------5-----------------------4-----------------4-----3-----------------------|
A|0-----------------------------------------------------------------------------------------------|
E|------------------------------------------------------------------------------------------------|
 
0:53
 
G|------------------------------------------------------------------------------------------------|
D|9-----------------------7-----------------------6-----------------6-----7-----------------------|
A|------------------------------------------------------------------------------------------------|
E|------------------------------------------------------------------------------------------------|
 
G|------------------------------------------------------------------------------------------------|
D|9-----------------------------------------------------------------------7-----------5-------4---|
A|------------------------6-----------------------7-------------------7---------------------------|
E|------------------------------------------------------------------------------------------------|
 
G|------------------------------------------------|
D|------------------------------------------------|
A|5-------------------5---5-----------------------|
E|------------------------------------------------|
 
1:14
 
G|------------------------------------------------------------------------------------------------|
D|4-------------------4---4-----------4---7---8---9-----------7-----------5-----------4-----------|
A|------------------------------------------------------------------------------------------------|
E|------------------------------------------------------------------------------------------------|
 
G|------------------------------------------------------------------------------------------------|
D|----------------------------------------5---6---7-----------5-----------4-----------------------|
A|7-------------------7---7-----------7-----------------------------------------------7-----------|
E|------------------------------------------------------------------------------------------------|
 
1:30
 
G|------------------------------------------------------------------------------------------------|
D|4-----------------------------------4---7---8---9-----------7-----------5-----------4-----------|
A|------------------------------------------------------------------------------------------------|
E|------------------------------------------------------------------------------------------------|
 
G|------------------------------------9-------7---------------------------------------------------|
D|------------------------------------------------7-----------5-----------------------------------|
A|7-------------------7---7-----------------------------------------------7-----------------------|
E|------------------------------------------------------------------------------------5-----------|
 
1:45
 
G|------------------------------------------------------------------------------------------------|
D|------------------------------------------------------------------------------------------------|
A|5-----------------------4-----------------------2-------------------2---1-----------------------|
E|------------------------------------------------------------------------------------------------|
 
G|------------------------------------------------------------------------------------------------|
D|------------------------5-----------------------4-------------------4---3-----------------------|
A|0-----------------------------------------------------------------------------------------------|
E|------------------------------------------------------------------------------------------------|
 
2:01
 
G|------------------------------------------------------------------------------------------------|
D|9-----------------------7-----------------------6-------------------6---7-----------------------|
A|------------------------------------------------------------------------------------------------|
E|------------------------------------------------------------------------------------------------|
 
G|------------------------------------------------------------------------------------------------|
D|9-----------------------------------------------------------------------7-----------5-------4---|
A|------------------------6-----------------------7-----------------------------------------------|
E|------------------------------------------------------------------------------------------------|
 
G|------------------------------------------------|
D|------------------------------------------------|.
A|--------------------5---------------------------|
E|------------------------5-----------------------|
 
2:22
 
G|------------------------------------------------------------------------------------------------|
D|------------------------------------------------------------------------------------------------|
A|5-----------------------4-----------------------2-----------------------1-----------------------|
E|------------------------------------------------------------------------------------------------|
 
G|------------------------------------------------------------------------------------------------|
D|------------------------5-----------------------4-----------------4-----3-----------------------|
A|0-----------------------------------------------------------------------------------------------|
E|------------------------------------------------------------------------------------------------|
 
G|----------------------------------------------------|
D|9-----------------------7-----------------------6---|
A|----------------------------------------------------|
E|----------------------------------------------------|
            

Thank you very much for your interest in our article. We hope this information is of great value to you.

Leave a Reply

Your email address will not be published. Required fields are marked *