Shanes – Without You Bass | Ver. 1 | The site that provides the most complete music chords

Are you looking for a topic Shanes – Without You Bass | Ver. 1
right? If so, then you can watch it right here.

Shanes – Without You Bass | Ver. 1
| You can find many other song chords here

Australia.xemloibaihat.com | Shanes – Without You Bass | Ver. 1


Tuning: EADG
 
G|----------------------------------------------------------------|
D|------------------------3-----------------------5---------------|
A|3-------------------------------6-------5-----------------------|
E|--------------------------------------------------------3-------|
 
0:05
 
G|----------------------------------------------------------------|.
D|------------------------3-----------------------5---------------|.
A|3-------------------------------6-------------------------------|.
E|----------------------------------------------------------------|.
                                                                   . x2
G|----------------------------------------------------------------|.
D|------------------------3-----------------------5---------------|.
A|3-------------------------------6-------5-----------------------|.
E|--------------------------------------------------------3-------|.
 
0:27
 
G|----------------------------------------------------------------|
D|--------------------------------------------------------5-------|
A|3-----------------------2-------1-------------------------------|
E|----------------------------------------------------------------|
 
G|----------------------------------------------------------------|
D|3---------------2-------------------------------5---------------|
A|--------------------------------5-------------------------------|
E|----------------------------------------------------------------|
 
G|----------------------------------------------------------------|
D|------------------------3-----------------------5---------------|
A|3-------------------------------6-------5-----------------------|
E|----------------------------------------------------------------|
 
G|----------------------------------------------------------------|
D|------------------------3-----------------------5---------------|
A|3-------------------------------6-------5-----------------------|
E|--------------------------------------------------------3-------|
 
0:48
 
G|----------------------------------------------------------------|.
D|------------------------3-----------------------5---------------|.
A|3-------------------------------6-------------------------------|.
E|----------------------------------------------------------------|.
                                                                   . x2
G|----------------------------------------------------------------|.
D|------------------------3-----------------------5---------------|.
A|3-------------------------------6-------5-----------------------|.
E|--------------------------------------------------------3-------|.
 
1:10
 
G|----------------------------------------------------------------|
D|--------------------------------------------------------5-------|
A|3-----------------------2-------1-------------------------------|
E|----------------------------------------------------------------|
 
G|----------------------------------------------------------------|
D|3---------------2-------------------------------5---------------|
A|--------------------------------5-------------------------------|
E|----------------------------------------------------------------|
 
G|----------------------------------------------------------------|
D|------------------------3-----------------------5---------------|
A|3-------------------------------6-------------------------------|
E|----------------------------------------------------------------|
 
G|----------------------------------------------------------------|
D|------------------------3-----------------------5---------------|
A|3-------------------------------6-------5---------------3-------|
E|----------------------------------------------------------------|
 
1:32
 
G|------------------------------------------------5---------------|
D|3-------------------------------5-------------------------------|
A|----------------5-----------------------------------------------|
E|----------------------------------------------------------------|
 
G|----------------------------------------------------------------|
D|3-------------------------------3---------------------------3---|
A|----------------------------------------------------------------|
E|----------------------------------------------------------------|
 
G|----------------------------------------------------------------|
D|3---2---2-------------------5---5---4---4---2---2---------------|
A|------------5---5---3---3---------------------------5---5---5---|
E|----------------------------------------------------------------|
 
G|----------------------------------------------------------------|
D|5---5---5---5---5---5---5---5---5---5---5---5---5---5---5---5---|
A|----------------------------------------------------------------|
E|----------------------------------------------------------------|
 
1:54
 
G|----------------------------------------------------------------|.
D|------------------------3-----------------------5---------------|.
A|3-------------------------------6-------------------------------|.
E|----------------------------------------------------------------|.
                                                                   . x2
G|----------------------------------------------------------------|.
D|------------------------3-----------------------5---------------|.
A|3-------------------------------6-------5-----------------------|.
E|--------------------------------------------------------3-------|.
 
2:17
 
G|----------------------------------------------------------------|
D|--------------------------------------------------------5-------|
A|3-----------------------2-------1-------------------------------|
E|----------------------------------------------------------------|
 
G|----------------------------------------------------------------|
D|3---------------2-------------------------------5---------------|
A|--------------------------------5-------------------------------|
E|----------------------------------------------------------------|
 
G|----------------------------------------------------------------|
D|------------------------3-----------------------5---------------|
A|3-------------------------------6-------------------------------|
E|----------------------------------------------------------------|
 
G|----------------------------------------------------------------|
D|------------------------3-----------------------5---------------|
A|3-------------------------------6-------5-----------------------|
E|--------------------------------------------------------3-------|
 
2:41
 
G|----------------------------------------------------------------|
D|------------------------3-----------------------5---------------|
A|3-------------------------------6-------------------------------|
E|----------------------------------------------------------------|
 
G|------------------------------------------------------------------------|
D|------------------------3-----------------------5-----------------------|
A|3-------------------------------6-------5---------------------------3---|
E|--------------------------------------------------------3---------------|
            

You can find more useful information here: https://australia.xemloibaihat.com/chord

Shanes – Without You Bass | Ver. 1
And searches related to this topic

#Shanes #Bass #Ver

Shanes – Without You Bass | Ver. 1

>>See more useful information provided by us here: See more here.

Review the information related to the topic Shanes – Without You Bass | Ver. 1
again

Australia.xemloibaihat.com | Shanes – Without You Bass | Ver. 1


Tuning: EADG
 
G|----------------------------------------------------------------|
D|------------------------3-----------------------5---------------|
A|3-------------------------------6-------5-----------------------|
E|--------------------------------------------------------3-------|
 
0:05
 
G|----------------------------------------------------------------|.
D|------------------------3-----------------------5---------------|.
A|3-------------------------------6-------------------------------|.
E|----------------------------------------------------------------|.
                                                                   . x2
G|----------------------------------------------------------------|.
D|------------------------3-----------------------5---------------|.
A|3-------------------------------6-------5-----------------------|.
E|--------------------------------------------------------3-------|.
 
0:27
 
G|----------------------------------------------------------------|
D|--------------------------------------------------------5-------|
A|3-----------------------2-------1-------------------------------|
E|----------------------------------------------------------------|
 
G|----------------------------------------------------------------|
D|3---------------2-------------------------------5---------------|
A|--------------------------------5-------------------------------|
E|----------------------------------------------------------------|
 
G|----------------------------------------------------------------|
D|------------------------3-----------------------5---------------|
A|3-------------------------------6-------5-----------------------|
E|----------------------------------------------------------------|
 
G|----------------------------------------------------------------|
D|------------------------3-----------------------5---------------|
A|3-------------------------------6-------5-----------------------|
E|--------------------------------------------------------3-------|
 
0:48
 
G|----------------------------------------------------------------|.
D|------------------------3-----------------------5---------------|.
A|3-------------------------------6-------------------------------|.
E|----------------------------------------------------------------|.
                                                                   . x2
G|----------------------------------------------------------------|.
D|------------------------3-----------------------5---------------|.
A|3-------------------------------6-------5-----------------------|.
E|--------------------------------------------------------3-------|.
 
1:10
 
G|----------------------------------------------------------------|
D|--------------------------------------------------------5-------|
A|3-----------------------2-------1-------------------------------|
E|----------------------------------------------------------------|
 
G|----------------------------------------------------------------|
D|3---------------2-------------------------------5---------------|
A|--------------------------------5-------------------------------|
E|----------------------------------------------------------------|
 
G|----------------------------------------------------------------|
D|------------------------3-----------------------5---------------|
A|3-------------------------------6-------------------------------|
E|----------------------------------------------------------------|
 
G|----------------------------------------------------------------|
D|------------------------3-----------------------5---------------|
A|3-------------------------------6-------5---------------3-------|
E|----------------------------------------------------------------|
 
1:32
 
G|------------------------------------------------5---------------|
D|3-------------------------------5-------------------------------|
A|----------------5-----------------------------------------------|
E|----------------------------------------------------------------|
 
G|----------------------------------------------------------------|
D|3-------------------------------3---------------------------3---|
A|----------------------------------------------------------------|
E|----------------------------------------------------------------|
 
G|----------------------------------------------------------------|
D|3---2---2-------------------5---5---4---4---2---2---------------|
A|------------5---5---3---3---------------------------5---5---5---|
E|----------------------------------------------------------------|
 
G|----------------------------------------------------------------|
D|5---5---5---5---5---5---5---5---5---5---5---5---5---5---5---5---|
A|----------------------------------------------------------------|
E|----------------------------------------------------------------|
 
1:54
 
G|----------------------------------------------------------------|.
D|------------------------3-----------------------5---------------|.
A|3-------------------------------6-------------------------------|.
E|----------------------------------------------------------------|.
                                                                   . x2
G|----------------------------------------------------------------|.
D|------------------------3-----------------------5---------------|.
A|3-------------------------------6-------5-----------------------|.
E|--------------------------------------------------------3-------|.
 
2:17
 
G|----------------------------------------------------------------|
D|--------------------------------------------------------5-------|
A|3-----------------------2-------1-------------------------------|
E|----------------------------------------------------------------|
 
G|----------------------------------------------------------------|
D|3---------------2-------------------------------5---------------|
A|--------------------------------5-------------------------------|
E|----------------------------------------------------------------|
 
G|----------------------------------------------------------------|
D|------------------------3-----------------------5---------------|
A|3-------------------------------6-------------------------------|
E|----------------------------------------------------------------|
 
G|----------------------------------------------------------------|
D|------------------------3-----------------------5---------------|
A|3-------------------------------6-------5-----------------------|
E|--------------------------------------------------------3-------|
 
2:41
 
G|----------------------------------------------------------------|
D|------------------------3-----------------------5---------------|
A|3-------------------------------6-------------------------------|
E|----------------------------------------------------------------|
 
G|------------------------------------------------------------------------|
D|------------------------3-----------------------5-----------------------|
A|3-------------------------------6-------5---------------------------3---|
E|--------------------------------------------------------3---------------|
            

Thank you very much for your interest in our article. We hope this information is of great value to you.

Leave a Reply

Your email address will not be published. Required fields are marked *