Home » Shawn Mendes – Show You Tabs | Ver. 1 | The site that provides the most complete music chords

Shawn Mendes – Show You Tabs | Ver. 1 | The site that provides the most complete music chords

by Andy Frank

Are you looking for a topic Shawn Mendes – Show You Tabs | Ver. 1
right? If so, then you can watch it right here.

Shawn Mendes – Show You Tabs | Ver. 1
| You can find many other song chords here

Australia.xemloibaihat.com | Shawn Mendes – Show You Tabs | Ver. 1


[Verse 1]
 
e|--0---0-0-0-0-0-0--0-----------------0----0------------------|
B|--0---------------------3---3-1-3-1-3----------3--1----------|
G|--0----------------------------------------------------------|
D|--2----------------------------------------------------------|
A|--3----------------------------------------0-----------------|
E|---------------------3---------------------------------------|
 
e|--------------------------0--0--0--0--0--0--------0-0-0-0---0-0-0-------|
B|-------1--------------1-------------------------------------------------|
G|--0-2-----0-0-0--2------------------------------------------------------|
D|------------------------------------------------------------------------|
A|------------------------------------------------3--3---------3----------|
E|-------1----------------------------------------------------------------|
 
e|-0--0-------------------0---0-------------------------------------------|
B|-------3---3-1-3-1-3----------3-1-----------1-----------1---------------|
G|--------------------------------------2--0-2-----0-0-0-2----------------|
D|------------------------------------------------------------------------|
A|-----------------------------0--------0---------------------------------|
E|----3------------------------------------------1-----------1--1---------|
 
e|-0-----------0-0------3h5-8-8-8-----|
B|---3--1-1-3-------------------------|
G|------------------------------------|
D|------------------------------------|
A|------------------------------------|
E|-3-----------------1----------------|
 
[Chorus]
 
e|--------------------------0-0-1-0-----0--0----------------------0------|
B|--1--1---1-1-1-3--0---------------3--------3-1----1-1-1-1-1------------|
G|-----------------------------------------------------------------------|
D|-----------------------------------------------------------------------|
A|--3-----3---------------------------------0--------0-------------------|
E|-----------------------3-------3-------------------------------1-------|
 
e|--------------0-----|
B|-1-1-1-1--1---------|
G|--------------------|
D|--------------------|
A|--------------------|
E|-----------1--------|
 
e|--------------------------0-0-1-0-----0--0----------------------0------|
B|--1--1---1-1-1-3--0---------------3--------3-1----1-1-1-1-1------------|
G|-----------------------------------------------------------------------|
D|-----------------------------------------------------------------------|
A|--3-----3---------------------------------0--------0-------------------|
E|-----------------------3-------3-------------------------------1-------|
 
e|--------------0-----|
B|-1-1-1-1--1---------|
G|--------------------|
D|--------------------|
A|--------------------|
E|-----------1--------|
 
[Verse 2]
 
e|---3-5-3--------3----------3-5-3--------3---3-5-7-5-3--3-5-3-------3-------|
B|----------5-3-5---5---------------5-3-5---5---------------------5-3-5------|
G|---------------------------------------------------------------------------|
D|---------------------------------------------------------------------------|
A|--3------------------3-3----------------------------------0----------------|
E|----------------------------3----------------------------------------------|
 
e|----------0------------0----------------|
B|-------3----3-1--1-3----3-1-1-----------|
G|----------------------------------------|
D|----------------------------------------|
A|-0--0-----------------------------------|
E|-------1---------1----------------------|
 
e|-----0-0-0-0-0-0--0----------------0--------------------------------------|
B|-----------------------3-3-1-3-1-3----1------1----------1-----------------|
G|-------------------------------------------0-2---0-0-0-2------------------|
D|--------------------------------------------------------------------------|
A|-3--3-----------------------------------0---------------------------------|
E|--------------------3-----------------------------------------------------|
 
e|-------------------------0------|
B|---1-1-1-1-1-1-1-1-3------------|
G|--------------------------------|
D|--------------------------------|
A|--------------------------------|
E|--1---------1-------------------|
 
e|-----0-0-0-0-0-0--0----------------0--------------------------------------|
B|-----------------------3-3-1-3-1-3----1------1----------1-----------------|
G|-------------------------------------------0-2---0-0-0-2------------------|
D|--------------------------------------------------------------------------|
A|-3--3-----------------------------------0---------------------------------|
E|--------------------3-----------------------------------------------------|
 
e|-------------------------0------|
B|---1-1-1-1-1-1-1-1-3------------|
G|--------------------------------|
D|--------------------------------|
A|--------------------------------|
E|--1---------1-------------------|
 
e|-0-----------0-0------3h5-8-8-8-----|
B|---3--1-1-3-------------------------|
G|------------------------------------|
D|------------------------------------|
A|------------------------------------|
E|-3-----------------1----------------|
 
[Chorus]
 
e|--------------------------0-0-1-0-----0--0----------------------0------|
B|--1--1---1-1-1-3--0---------------3--------3-1----1-1-1-1-1------------|
G|-----------------------------------------------------------------------|
D|-----------------------------------------------------------------------|
A|--3-----3---------------------------------0--------0-------------------|
E|-----------------------3-------3-------------------------------1-------|
 
e|--------------0-----|
B|-1-1-1-1--1---------|
G|--------------------|
D|--------------------|
A|--------------------|
E|-----------1--------|
 
e|--------------------------0-0-1-0-----0--0----------------------0------|
B|--1--1---1-1-1-3--0---------------3--------3-1----1-1-1-1-1------------|
G|-----------------------------------------------------------------------|
D|-----------------------------------------------------------------------|
A|--3-----3---------------------------------0--------0-------------------|
E|-----------------------3-------3-------------------------------1-------|
 
e|--------------0-----|
B|-1-1-1-1--1---------|
G|--------------------|
D|--------------------|
A|--------------------|
E|-----------1--------|
 
[Verse 3]
 
e|-------------------------------------------------0-0-1-0--------------0------|
B|---1-1-1-1-1--1-1-1-1-1-1-1-0---0-0-0-0-0----------3--1-1-1-1---1-1----------|
G|-----------------------------------------------------------------------------|
D|-----------------------------------------------------------------------------|
A|--3----------------------------------------------------------0---------------|
E|-----------------------------------3------------3----------------------------|
 
e|-0------0------0---------0----------------------------------|
B|--1-1-1--1-1-----1-1-1---1-1-1--0-1-1-1-0-1-1--1------------|
G|------------------------------------------------------------|
D|------------------------------------------------------------|
A|-0----------------------------------------------------------|
E|----------------1-----------------------------1-------------|
 
e|-------------------------------------------------0-0-1-0--------------0-------|
B|---1-1-1-1-1--1-1-1-1-1-1-1-0---0-0-0-0-0----------3--1-1-1-1---1-1-----------|
G|------------------------------------------------------------------------------|
D|------------------------------------------------------------------------------|
A|--3----------------------------------------------------------0----------------|
E|-----------------------------------3------------3-----------------------------|
 
e|-0------0------0---------0----------------------------------|
B|--1-1-1--1-1-----1-1-1---1-1-1--0-1-1-1-0-1-1--1------------|
G|------------------------------------------------------------|
D|------------------------------------------------------------|
A|-0----------------------------------------------------------|
E|----------------1-----------------------------1-------------|
 
e|-----------------------------------------------------------0------------0-|
B|-1---------------------------------------------1-1-1-1-1--1-1-1-1--1------|
G|-------0------------------------------------------------------------------|
D|-----------3-3-3-3-3-2---0-2-0-----0-----2--------------------------------|
A|-3--3---3-------------------------3-3----0--------------------------------|
E|---------------------3----------------------------------1-------------1---|
 
[Chorus]
 
e|--------------------------0-0-1-0-----0--0----------------------0------|
B|--1--1---1-1-1-3--3---------------3--------3-1----1-1-1-1-1------------|
G|-----------------------------------------------------------------------|
D|-----------------------------------------------------------------------|
A|--3-----3---------------------------------0--------0-------------------|
E|-----------------------3-------3-------------------------------1-------|
 
e|--------------0-----|
B|-1-1-1-1--1---------|
G|--------------------|
D|--------------------|
A|--------------------|
E|-----------1--------|
 
e|-------------------------------------------------0-0-1-0--------------0------|
B|---1-1-1-1-1--1-1-1-1-1-1-1-0---0-0-0-0-0----------3--1-1-1-1---1-1----------|
G|-----------------------------------------------------------------------------|
D|-----------------------------------------------------------------------------|
A|--3----------------------------------------------------------0---------------|
E|-----------------------------------3------------3----------------------------|
 
e|-0------0------------------0--------------0------0-----------------|
B|--1-1-1--1-1--1-1-1-1-1--1-1-1-1-1-3---3-1-1-----------------------|
G|--------------------------------------------------0----------------|
D|--------------------------------------------------2----------------|
A|-0------------------------------------------------3----------------|
E|-------------------------1-----------------------------------------|
            

You can find more useful information here: See here

Shawn Mendes – Show You Tabs | Ver. 1
And searches related to this topic

#Shawn #Mendes #Show #Tabs #Ver

Shawn Mendes – Show You Tabs | Ver. 1

>>See more useful information provided by us here: See more here.

Review the information related to the topic Shawn Mendes – Show You Tabs | Ver. 1
again

Australia.xemloibaihat.com | Shawn Mendes – Show You Tabs | Ver. 1


[Verse 1]
 
e|--0---0-0-0-0-0-0--0-----------------0----0------------------|
B|--0---------------------3---3-1-3-1-3----------3--1----------|
G|--0----------------------------------------------------------|
D|--2----------------------------------------------------------|
A|--3----------------------------------------0-----------------|
E|---------------------3---------------------------------------|
 
e|--------------------------0--0--0--0--0--0--------0-0-0-0---0-0-0-------|
B|-------1--------------1-------------------------------------------------|
G|--0-2-----0-0-0--2------------------------------------------------------|
D|------------------------------------------------------------------------|
A|------------------------------------------------3--3---------3----------|
E|-------1----------------------------------------------------------------|
 
e|-0--0-------------------0---0-------------------------------------------|
B|-------3---3-1-3-1-3----------3-1-----------1-----------1---------------|
G|--------------------------------------2--0-2-----0-0-0-2----------------|
D|------------------------------------------------------------------------|
A|-----------------------------0--------0---------------------------------|
E|----3------------------------------------------1-----------1--1---------|
 
e|-0-----------0-0------3h5-8-8-8-----|
B|---3--1-1-3-------------------------|
G|------------------------------------|
D|------------------------------------|
A|------------------------------------|
E|-3-----------------1----------------|
 
[Chorus]
 
e|--------------------------0-0-1-0-----0--0----------------------0------|
B|--1--1---1-1-1-3--0---------------3--------3-1----1-1-1-1-1------------|
G|-----------------------------------------------------------------------|
D|-----------------------------------------------------------------------|
A|--3-----3---------------------------------0--------0-------------------|
E|-----------------------3-------3-------------------------------1-------|
 
e|--------------0-----|
B|-1-1-1-1--1---------|
G|--------------------|
D|--------------------|
A|--------------------|
E|-----------1--------|
 
e|--------------------------0-0-1-0-----0--0----------------------0------|
B|--1--1---1-1-1-3--0---------------3--------3-1----1-1-1-1-1------------|
G|-----------------------------------------------------------------------|
D|-----------------------------------------------------------------------|
A|--3-----3---------------------------------0--------0-------------------|
E|-----------------------3-------3-------------------------------1-------|
 
e|--------------0-----|
B|-1-1-1-1--1---------|
G|--------------------|
D|--------------------|
A|--------------------|
E|-----------1--------|
 
[Verse 2]
 
e|---3-5-3--------3----------3-5-3--------3---3-5-7-5-3--3-5-3-------3-------|
B|----------5-3-5---5---------------5-3-5---5---------------------5-3-5------|
G|---------------------------------------------------------------------------|
D|---------------------------------------------------------------------------|
A|--3------------------3-3----------------------------------0----------------|
E|----------------------------3----------------------------------------------|
 
e|----------0------------0----------------|
B|-------3----3-1--1-3----3-1-1-----------|
G|----------------------------------------|
D|----------------------------------------|
A|-0--0-----------------------------------|
E|-------1---------1----------------------|
 
e|-----0-0-0-0-0-0--0----------------0--------------------------------------|
B|-----------------------3-3-1-3-1-3----1------1----------1-----------------|
G|-------------------------------------------0-2---0-0-0-2------------------|
D|--------------------------------------------------------------------------|
A|-3--3-----------------------------------0---------------------------------|
E|--------------------3-----------------------------------------------------|
 
e|-------------------------0------|
B|---1-1-1-1-1-1-1-1-3------------|
G|--------------------------------|
D|--------------------------------|
A|--------------------------------|
E|--1---------1-------------------|
 
e|-----0-0-0-0-0-0--0----------------0--------------------------------------|
B|-----------------------3-3-1-3-1-3----1------1----------1-----------------|
G|-------------------------------------------0-2---0-0-0-2------------------|
D|--------------------------------------------------------------------------|
A|-3--3-----------------------------------0---------------------------------|
E|--------------------3-----------------------------------------------------|
 
e|-------------------------0------|
B|---1-1-1-1-1-1-1-1-3------------|
G|--------------------------------|
D|--------------------------------|
A|--------------------------------|
E|--1---------1-------------------|
 
e|-0-----------0-0------3h5-8-8-8-----|
B|---3--1-1-3-------------------------|
G|------------------------------------|
D|------------------------------------|
A|------------------------------------|
E|-3-----------------1----------------|
 
[Chorus]
 
e|--------------------------0-0-1-0-----0--0----------------------0------|
B|--1--1---1-1-1-3--0---------------3--------3-1----1-1-1-1-1------------|
G|-----------------------------------------------------------------------|
D|-----------------------------------------------------------------------|
A|--3-----3---------------------------------0--------0-------------------|
E|-----------------------3-------3-------------------------------1-------|
 
e|--------------0-----|
B|-1-1-1-1--1---------|
G|--------------------|
D|--------------------|
A|--------------------|
E|-----------1--------|
 
e|--------------------------0-0-1-0-----0--0----------------------0------|
B|--1--1---1-1-1-3--0---------------3--------3-1----1-1-1-1-1------------|
G|-----------------------------------------------------------------------|
D|-----------------------------------------------------------------------|
A|--3-----3---------------------------------0--------0-------------------|
E|-----------------------3-------3-------------------------------1-------|
 
e|--------------0-----|
B|-1-1-1-1--1---------|
G|--------------------|
D|--------------------|
A|--------------------|
E|-----------1--------|
 
[Verse 3]
 
e|-------------------------------------------------0-0-1-0--------------0------|
B|---1-1-1-1-1--1-1-1-1-1-1-1-0---0-0-0-0-0----------3--1-1-1-1---1-1----------|
G|-----------------------------------------------------------------------------|
D|-----------------------------------------------------------------------------|
A|--3----------------------------------------------------------0---------------|
E|-----------------------------------3------------3----------------------------|
 
e|-0------0------0---------0----------------------------------|
B|--1-1-1--1-1-----1-1-1---1-1-1--0-1-1-1-0-1-1--1------------|
G|------------------------------------------------------------|
D|------------------------------------------------------------|
A|-0----------------------------------------------------------|
E|----------------1-----------------------------1-------------|
 
e|-------------------------------------------------0-0-1-0--------------0-------|
B|---1-1-1-1-1--1-1-1-1-1-1-1-0---0-0-0-0-0----------3--1-1-1-1---1-1-----------|
G|------------------------------------------------------------------------------|
D|------------------------------------------------------------------------------|
A|--3----------------------------------------------------------0----------------|
E|-----------------------------------3------------3-----------------------------|
 
e|-0------0------0---------0----------------------------------|
B|--1-1-1--1-1-----1-1-1---1-1-1--0-1-1-1-0-1-1--1------------|
G|------------------------------------------------------------|
D|------------------------------------------------------------|
A|-0----------------------------------------------------------|
E|----------------1-----------------------------1-------------|
 
e|-----------------------------------------------------------0------------0-|
B|-1---------------------------------------------1-1-1-1-1--1-1-1-1--1------|
G|-------0------------------------------------------------------------------|
D|-----------3-3-3-3-3-2---0-2-0-----0-----2--------------------------------|
A|-3--3---3-------------------------3-3----0--------------------------------|
E|---------------------3----------------------------------1-------------1---|
 
[Chorus]
 
e|--------------------------0-0-1-0-----0--0----------------------0------|
B|--1--1---1-1-1-3--3---------------3--------3-1----1-1-1-1-1------------|
G|-----------------------------------------------------------------------|
D|-----------------------------------------------------------------------|
A|--3-----3---------------------------------0--------0-------------------|
E|-----------------------3-------3-------------------------------1-------|
 
e|--------------0-----|
B|-1-1-1-1--1---------|
G|--------------------|
D|--------------------|
A|--------------------|
E|-----------1--------|
 
e|-------------------------------------------------0-0-1-0--------------0------|
B|---1-1-1-1-1--1-1-1-1-1-1-1-0---0-0-0-0-0----------3--1-1-1-1---1-1----------|
G|-----------------------------------------------------------------------------|
D|-----------------------------------------------------------------------------|
A|--3----------------------------------------------------------0---------------|
E|-----------------------------------3------------3----------------------------|
 
e|-0------0------------------0--------------0------0-----------------|
B|--1-1-1--1-1--1-1-1-1-1--1-1-1-1-1-3---3-1-1-----------------------|
G|--------------------------------------------------0----------------|
D|--------------------------------------------------2----------------|
A|-0------------------------------------------------3----------------|
E|-------------------------1-----------------------------------------|
            

READ  Jar of Hearts (Christina Perri) Banjo Cover Lesson with Chords/Lyrics - Capo 3rd | jar of hearts piano chord | #1 song chords

Thank you very much for your interest in our article. We hope this information is of great value to you.

You may also like

Leave a Comment