Home » Snfu – Head Smashed In Buffalo Jump Tabs | Ver. 1 | The site that provides the most complete music chords

Snfu – Head Smashed In Buffalo Jump Tabs | Ver. 1 | The site that provides the most complete music chords

by Andy Frank

Are you looking for a topic Snfu – Head Smashed In Buffalo Jump Tabs | Ver. 1
right? If so, then you can watch it right here.

Snfu – Head Smashed In Buffalo Jump Tabs | Ver. 1
| You can find many other song chords here

Australia.xemloibaihat.com | Snfu – Head Smashed In Buffalo Jump Tabs | Ver. 1


[Intro]
 
This little tail is played before the first beat but it's actually the end of the riff
 
e|---------------|
B|---------------|
G|---9/109-7-9--|
D|---------------|
A|---7/8 7-5-7--|
E|---------------|
 
e|-----------------------------------------|
B|-----------------------------------------|
G|-------5----------------------9/109-7-9-|
D|---7---7---7-----------------------------| x4
A|------------------------------7/8 7-5-7-|
E|---5-------5-----------------------------|
 
             * Let Ring
 
 
[Verse 1]
 
e|-----------------------------------------|
B|-----------------------------------------|
G|-------5----------------------9/109-7-9-|
D|---7---7---7-----------------------------| x2
A|------------------------------7/8 7-5-7-|
E|---5-------5-----------------------------|
 
              * Let Ring
 
 
e|-----------------------------------------------------------------------------|
B|-----------------------------------------------------------------------------|
G|------------------------------------5----------------------------------------|
D|--3-------------0--7-------------0--5-------------0--7-------------0---------|
A|--3----------------7----------------3-3-3-3-3-3-3----7-----------------------|
E|--1-1-1-1-1-1-1----5-5-5-5-5-5-5---------------------5-5-5-5-5-5-5-----------|
 
      PM -------|      PM--------|      PM--------|      PM--------|
 
e|-----------------------------------------------------------------------------|
B|-----------------------------------------------------------------------------|
G|------------------------------------5----------------14-14-14-14-14-14-14-14-|
D|--3-------------0--7-------------0--5-------------0--14-14-14-14-14-14-14-14-|
A|--3----------------7----------------3-3-3-3-3-3-3----12-12-12-12-12-12-12-12-|
E|--1-1-1-1-1-1-1----5-5-5-5-5-5-5---------------------------------------------|
 
      PM -------|      PM--------|      PM--------|
 
[Chorus]
 
e|-------------------------------------------------------------|
B|-------------------------------------------------------------|
G|------5-7--7------5-7-7-7-5-----5-7-7-7----------------------|
D|--7---5-7--7---3--5-7-7-7-5--7--5-7-7-7---3-3-3-3-3-3-3-3----| x2
A|--7---3-5--5---3--3-5-5-5-3--7--3-5-5-5---3-3-3-3-3-3-3-3----|
E|--5------------1-------------5------------1-1-1-1-1-1-1-1----|
 
 
[Verse 2]
 
e|-----------------------------------------------------------------------------|
B|-----------------------------------------------------------------------------|
G|------------------------------------5----------------------------------------|
D|--3-------------0--7-------------0--5-------------0--7-------------0---------| x2
A|--3----------------7----------------3-3-3-3-3-3-3----7-----------------------|
E|--1-1-1-1-1-1-1----5-5-5-5-5-5-5---------------------5-5-5-5-5-5-5-----------|
 
      PM -------|      PM--------|      PM--------|      PM--------|
 
e|-------------------------------------|
B|-------------------------------------|
G|-----------5-------------------------|
D|--3-----0--5-----0--7-------------0--| x3
A|--3--------3-3-3----7----------------|
E|--1-1-1-------------5-5-5-5-5-5-5----|
 
     PM-|     PM-|      PM--------|
 
e|-------------------------------------|
B|-------------------------------------|
G|-----------5-------------------------|
D|--3-----0--5-----0--7-7-7-7-7-7-7----|
A|--3--------3-3-3----7-7-7-7-7-7-7----|
E|--1-1-1-------------5-5-5-5-5-5-5----|
 
     PM-|     PM-|
 
 
[Chorus]
 
e|-------------------------------------------------------------|
B|-------------------------------------------------------------|
G|------5-7--7------5-7-7-7-5-----5-7-7-7----------------------|
D|--7---5-7--7---3--5-7-7-7-5--7--5-7-7-7---3-3-3-3-3-3-3-3----| x2
A|--7---3-5--5---3--3-5-5-5-3--7--3-5-5-5---3-3-3-3-3-3-3-3----|
E|--5------------1-------------5------------1-1-1-1-1-1-1-1----|
 
 
[Solo - Rhythm]
 
e|---------------------------------------------------------------------------|
B|---------------------------------------------------------------------------|
G|---------------------------------------------------------------------------|
D|---------------------------------------------------------------------------| x2
A|----------------------------------3-3-3-3-3-3-3-3--------------------------|
E|--1-1-1-1-1-1-1-1-5-5-5-5-5-5-5-5-----------------5-5-5-5-5-5-5-5----------|
 
    PM -----------------------------------------------------------|
 
e|----------------------------------|
B|----------------------------------|
G|----------------------------------|
D|----------------------------------| x4
A|----------3-3-3-3-----------------|
E|--1-1-1-1---------5-5-5-5-5-5-5-5-|
 
    PM ----------------------------|
 
 
 
[Solo - Lead]
 
Lots of half and quarter bends in here.
It sounds more accurate for SNFU if you pull the held notes a bit out of tune.
 
e|----------------------------------------------------------------------------------------------|
B|----------------------------------------------------------------------------------------------|
G|-----------------------------------------------------------------------------------------7b9~~|
D|-7-7p5p0-7p5p0-7-7p5p0-7p5p0--7-7p5p0-7p5p0-7-7p5p0-7p5p0--7-7p5p0-7p5p0-7-7p5p0-7p5p0-7------|
A|----------------------------------------------------------------------------------------------|
E|----------------------------------------------------------------------------------------------|
 
 
e|--------------------------------------------------------------------------------------------------------|
B|--------------------------------------------------------------------------------------------------------|
G|--------------------------------5p2p0-5p2p0-5-5p2p0-5p2p0--5-----------------------------7b9-5-7-5------|
D|-7-7p5p0-7p5p0-7-7p5p0-7p5p0--7------------------------------7p5p0-7p5p0-7-7p5p0-7p5p0-7-----------7-7--|
A|--------------------------------------------------------------------------------------------------------|
E|--------------------------------------------------------------------------------------------------------|
 
e|---------------------------------------------------------------------------------------------|
B|--------------------------------------10b---10b----------------------------------------------|
G|-7-5------------5---------7-5-------9-----9---------7-5-----------5--------7-5---------------|
D|-----7------5-7---7b----------7-------------------------7-----5-7---7b---------7--------7----|
A|------------------------------------------------------------------------------------8--------|
E|---------------------------------------------------------------------------------------------|
 
e|---------------------------------------------------------------------------|
B|---------------------------------------------------------------------------|
G|------------------------------9------------------9--(9)--------------------|
D|-------7---10------------7---10-------------7---10-------------------------|
A|-8-7-8---------------7-8--------------8-7-8--------------------------------|
E|---------------------------------------------------------------------------|
                                                       |-- Let Ring --------
 
[Outro]
 
There's a second guitar playing some lead here. It's tough to pick out all the notes
since it's fairly noisy and deeper in the mix. It's mostly notes in the 5th position
similar to what is played in the solo.
 
e|-------------------------------------------------------------|
B|-------------------------------------------------------------|
G|------5-7--7------5-7-7-7-5-----5-7-7-7----------------------|
D|--7---5-7--7---3--5-7-7-7-5--7--5-7-7-7---3-3-3-3-3-3-3-3----| x4
A|--7---3-5--5---3--3-5-5-5-3--7--3-5-5-5---3-3-3-3-3-3-3-3----|
E|--5------------1-------------5------------1-1-1-1-1-1-1-1----|
 
e|---------------------------------------------------------------------------|
B|---------------------------------------------------------------------------|
G|--------------------------------------------2-------------------------------|
D|--3-3-3-3-3-----3-3-3-3-3-----3-3-3-3-3-----2----------------------------------------------|
A|--3-3-3-3-3-----3-3-3-3-3-----3-3-3-3-3-----0----------------------------------------------|
E|--1-1-1-1-1-----1-1-1-1-1-----1-1-1-1-1--------------------------------------------------|
 
    PM ---|       PM ---|       PM ---|
            

READ  Imagine Dragons - "Demons" Piano Tutorial - Chords - How To Play - Cover | how far i'll go chords piano | #1 song chords
READ  Iyaz - Replay Chords | The site that provides the most complete music chords

You can find more useful information here: See more here

Snfu – Head Smashed In Buffalo Jump Tabs | Ver. 1
And searches related to this topic

#Snfu #Smashed #Buffalo #Jump #Tabs #Ver

Snfu – Head Smashed In Buffalo Jump Tabs | Ver. 1

>>See more useful information provided by us here: https://australia.xemloibaihat.com.

Review the information related to the topic Snfu – Head Smashed In Buffalo Jump Tabs | Ver. 1
again

Australia.xemloibaihat.com | Snfu – Head Smashed In Buffalo Jump Tabs | Ver. 1


[Intro]
 
This little tail is played before the first beat but it's actually the end of the riff
 
e|---------------|
B|---------------|
G|---9/109-7-9--|
D|---------------|
A|---7/8 7-5-7--|
E|---------------|
 
e|-----------------------------------------|
B|-----------------------------------------|
G|-------5----------------------9/109-7-9-|
D|---7---7---7-----------------------------| x4
A|------------------------------7/8 7-5-7-|
E|---5-------5-----------------------------|
 
             * Let Ring
 
 
[Verse 1]
 
e|-----------------------------------------|
B|-----------------------------------------|
G|-------5----------------------9/109-7-9-|
D|---7---7---7-----------------------------| x2
A|------------------------------7/8 7-5-7-|
E|---5-------5-----------------------------|
 
              * Let Ring
 
 
e|-----------------------------------------------------------------------------|
B|-----------------------------------------------------------------------------|
G|------------------------------------5----------------------------------------|
D|--3-------------0--7-------------0--5-------------0--7-------------0---------|
A|--3----------------7----------------3-3-3-3-3-3-3----7-----------------------|
E|--1-1-1-1-1-1-1----5-5-5-5-5-5-5---------------------5-5-5-5-5-5-5-----------|
 
      PM -------|      PM--------|      PM--------|      PM--------|
 
e|-----------------------------------------------------------------------------|
B|-----------------------------------------------------------------------------|
G|------------------------------------5----------------14-14-14-14-14-14-14-14-|
D|--3-------------0--7-------------0--5-------------0--14-14-14-14-14-14-14-14-|
A|--3----------------7----------------3-3-3-3-3-3-3----12-12-12-12-12-12-12-12-|
E|--1-1-1-1-1-1-1----5-5-5-5-5-5-5---------------------------------------------|
 
      PM -------|      PM--------|      PM--------|
 
[Chorus]
 
e|-------------------------------------------------------------|
B|-------------------------------------------------------------|
G|------5-7--7------5-7-7-7-5-----5-7-7-7----------------------|
D|--7---5-7--7---3--5-7-7-7-5--7--5-7-7-7---3-3-3-3-3-3-3-3----| x2
A|--7---3-5--5---3--3-5-5-5-3--7--3-5-5-5---3-3-3-3-3-3-3-3----|
E|--5------------1-------------5------------1-1-1-1-1-1-1-1----|
 
 
[Verse 2]
 
e|-----------------------------------------------------------------------------|
B|-----------------------------------------------------------------------------|
G|------------------------------------5----------------------------------------|
D|--3-------------0--7-------------0--5-------------0--7-------------0---------| x2
A|--3----------------7----------------3-3-3-3-3-3-3----7-----------------------|
E|--1-1-1-1-1-1-1----5-5-5-5-5-5-5---------------------5-5-5-5-5-5-5-----------|
 
      PM -------|      PM--------|      PM--------|      PM--------|
 
e|-------------------------------------|
B|-------------------------------------|
G|-----------5-------------------------|
D|--3-----0--5-----0--7-------------0--| x3
A|--3--------3-3-3----7----------------|
E|--1-1-1-------------5-5-5-5-5-5-5----|
 
     PM-|     PM-|      PM--------|
 
e|-------------------------------------|
B|-------------------------------------|
G|-----------5-------------------------|
D|--3-----0--5-----0--7-7-7-7-7-7-7----|
A|--3--------3-3-3----7-7-7-7-7-7-7----|
E|--1-1-1-------------5-5-5-5-5-5-5----|
 
     PM-|     PM-|
 
 
[Chorus]
 
e|-------------------------------------------------------------|
B|-------------------------------------------------------------|
G|------5-7--7------5-7-7-7-5-----5-7-7-7----------------------|
D|--7---5-7--7---3--5-7-7-7-5--7--5-7-7-7---3-3-3-3-3-3-3-3----| x2
A|--7---3-5--5---3--3-5-5-5-3--7--3-5-5-5---3-3-3-3-3-3-3-3----|
E|--5------------1-------------5------------1-1-1-1-1-1-1-1----|
 
 
[Solo - Rhythm]
 
e|---------------------------------------------------------------------------|
B|---------------------------------------------------------------------------|
G|---------------------------------------------------------------------------|
D|---------------------------------------------------------------------------| x2
A|----------------------------------3-3-3-3-3-3-3-3--------------------------|
E|--1-1-1-1-1-1-1-1-5-5-5-5-5-5-5-5-----------------5-5-5-5-5-5-5-5----------|
 
    PM -----------------------------------------------------------|
 
e|----------------------------------|
B|----------------------------------|
G|----------------------------------|
D|----------------------------------| x4
A|----------3-3-3-3-----------------|
E|--1-1-1-1---------5-5-5-5-5-5-5-5-|
 
    PM ----------------------------|
 
 
 
[Solo - Lead]
 
Lots of half and quarter bends in here.
It sounds more accurate for SNFU if you pull the held notes a bit out of tune.
 
e|----------------------------------------------------------------------------------------------|
B|----------------------------------------------------------------------------------------------|
G|-----------------------------------------------------------------------------------------7b9~~|
D|-7-7p5p0-7p5p0-7-7p5p0-7p5p0--7-7p5p0-7p5p0-7-7p5p0-7p5p0--7-7p5p0-7p5p0-7-7p5p0-7p5p0-7------|
A|----------------------------------------------------------------------------------------------|
E|----------------------------------------------------------------------------------------------|
 
 
e|--------------------------------------------------------------------------------------------------------|
B|--------------------------------------------------------------------------------------------------------|
G|--------------------------------5p2p0-5p2p0-5-5p2p0-5p2p0--5-----------------------------7b9-5-7-5------|
D|-7-7p5p0-7p5p0-7-7p5p0-7p5p0--7------------------------------7p5p0-7p5p0-7-7p5p0-7p5p0-7-----------7-7--|
A|--------------------------------------------------------------------------------------------------------|
E|--------------------------------------------------------------------------------------------------------|
 
e|---------------------------------------------------------------------------------------------|
B|--------------------------------------10b---10b----------------------------------------------|
G|-7-5------------5---------7-5-------9-----9---------7-5-----------5--------7-5---------------|
D|-----7------5-7---7b----------7-------------------------7-----5-7---7b---------7--------7----|
A|------------------------------------------------------------------------------------8--------|
E|---------------------------------------------------------------------------------------------|
 
e|---------------------------------------------------------------------------|
B|---------------------------------------------------------------------------|
G|------------------------------9------------------9--(9)--------------------|
D|-------7---10------------7---10-------------7---10-------------------------|
A|-8-7-8---------------7-8--------------8-7-8--------------------------------|
E|---------------------------------------------------------------------------|
                                                       |-- Let Ring --------
 
[Outro]
 
There's a second guitar playing some lead here. It's tough to pick out all the notes
since it's fairly noisy and deeper in the mix. It's mostly notes in the 5th position
similar to what is played in the solo.
 
e|-------------------------------------------------------------|
B|-------------------------------------------------------------|
G|------5-7--7------5-7-7-7-5-----5-7-7-7----------------------|
D|--7---5-7--7---3--5-7-7-7-5--7--5-7-7-7---3-3-3-3-3-3-3-3----| x4
A|--7---3-5--5---3--3-5-5-5-3--7--3-5-5-5---3-3-3-3-3-3-3-3----|
E|--5------------1-------------5------------1-1-1-1-1-1-1-1----|
 
e|---------------------------------------------------------------------------|
B|---------------------------------------------------------------------------|
G|--------------------------------------------2-------------------------------|
D|--3-3-3-3-3-----3-3-3-3-3-----3-3-3-3-3-----2----------------------------------------------|
A|--3-3-3-3-3-----3-3-3-3-3-----3-3-3-3-3-----0----------------------------------------------|
E|--1-1-1-1-1-----1-1-1-1-1-----1-1-1-1-1--------------------------------------------------|
 
    PM ---|       PM ---|       PM ---|
            

READ  Switchfoot - Youre The One I Want Tabs | Ver. 1 | The site that provides the most complete music chords

Thank you very much for your interest in our article. We hope this information is of great value to you.

You may also like

Leave a Comment