Home » Swans – A Little God In My Hands Bass | Ver. 1 | The site that provides the most complete music chords

Swans – A Little God In My Hands Bass | Ver. 1 | The site that provides the most complete music chords

Are you looking for a topic Swans – A Little God In My Hands Bass | Ver. 1
right? If so, then you can watch it right here.

Swans – A Little God In My Hands Bass | Ver. 1
| You can find many other song chords here

Australia.xemloibaihat.com | Swans – A Little God In My Hands Bass | Ver. 1


G|----------------------------------------------------------------------------|
D|-----5-----8----------------------------------------------------------------|
A|--------7-------------------------------------------------------------------|
E|--0-------------------------------------------------------------------------|
 
G|----------------------------------------------------------------------------|
D|----5-----14----------------------------------------------------------------|
A|-------7--------------------------------------------------------------------|
E|--0-------------------------------------------------------------------------|
 
 
G|----------------------------------------------------------------------------|
D|-----5-----8---------------------------------------------------------------|
A|--------7-------------------------------------------------------------------|
E|--0-----------0-------------------------------------------------------------|
 
G|------------12--------------------------------------------------------------|
D|-----5----------------------------------------------------------------------|
A|--------7-------------------------------------------------------------------|
E|--0-------------------------------------------------------------------------|
 
G|----------------------------------------------------------------------------|
D|-----5------12-12-12-14h----------------------------------------------------|
A|--------7-------------------------------------------------------------------|
E|--0-------------------------------------------------------------------------|
 
G|----------------------------------------------------------------------------|
D|----5-------12-14h--12-14h--------------------------------------------------|
A|--------7-------------------------------------------------------------------|
E|--0-------------------------------------------------------------------------|
 
G|----------------14----------------------------------------------------------|
D|-------5--------------------------------------------------------------------|
A|-----------7----------------------------------------------------------------|
E|---0------------------------------------------------------------------------|
            

See also  Hollywood Undead - Comin Thru The Stereo Tabs | Ver. 1 | The site that provides the most complete music chords

You can find more useful information here: Australia.xemloibaihat.com/chord

Swans – A Little God In My Hands Bass | Ver. 1
And searches related to this topic

#Swans #God #Hands #Bass #Ver

See also  CAM – The Otherside Chords and Tabs for Guitar and Piano | The site that provides the most complete music chords

Swans – A Little God In My Hands Bass | Ver. 1

>>See more useful information provided by us here: See here.

Review the information related to the topic Swans – A Little God In My Hands Bass | Ver. 1
again

Australia.xemloibaihat.com | Swans – A Little God In My Hands Bass | Ver. 1


G|----------------------------------------------------------------------------|
D|-----5-----8----------------------------------------------------------------|
A|--------7-------------------------------------------------------------------|
E|--0-------------------------------------------------------------------------|
 
G|----------------------------------------------------------------------------|
D|----5-----14----------------------------------------------------------------|
A|-------7--------------------------------------------------------------------|
E|--0-------------------------------------------------------------------------|
 
 
G|----------------------------------------------------------------------------|
D|-----5-----8---------------------------------------------------------------|
A|--------7-------------------------------------------------------------------|
E|--0-----------0-------------------------------------------------------------|
 
G|------------12--------------------------------------------------------------|
D|-----5----------------------------------------------------------------------|
A|--------7-------------------------------------------------------------------|
E|--0-------------------------------------------------------------------------|
 
G|----------------------------------------------------------------------------|
D|-----5------12-12-12-14h----------------------------------------------------|
A|--------7-------------------------------------------------------------------|
E|--0-------------------------------------------------------------------------|
 
G|----------------------------------------------------------------------------|
D|----5-------12-14h--12-14h--------------------------------------------------|
A|--------7-------------------------------------------------------------------|
E|--0-------------------------------------------------------------------------|
 
G|----------------14----------------------------------------------------------|
D|-------5--------------------------------------------------------------------|
A|-----------7----------------------------------------------------------------|
E|---0------------------------------------------------------------------------|
            

See also  Young the Giant - Cough Syrup Chords | The site that provides the most complete music chords

Thank you very much for your interest in our article. We hope this information is of great value to you.

Leave a Reply

Your email address will not be published.