Home » Talk Talk – For What Its Worth Chords | Ver. 1 | The site that provides the most complete music chords

Talk Talk – For What Its Worth Chords | Ver. 1 | The site that provides the most complete music chords

Are you looking for a topic Talk Talk – For What Its Worth Chords | Ver. 1
right? If so, then you can watch it right here.

Talk Talk – For What Its Worth Chords | Ver. 1
| You can find many other song chords here

Australia.xemloibaihat.com | Talk Talk – For What Its Worth Chords | Ver. 1


[Intro]
 
  F
e|1-1-1-1-------------------------|
B|--------------------------------|
G|--------------------------------|
D|3-3-3-3-------------------------|
A|----------0----------5----0---0-|
E|--------5---5--53/5--------5---|
 
G            A            G            A
 
[Verse 1]
 
G                          A
        I love to hear you sing
G                          A
        In every style you give
G                          A
        Sometimes a touch aright
G                      A
        Finally you tried
 
[Instrumental]
 
  G                                                       A
e|------------------------------------------------------------|
B|----------------------------------------------------------2-|
G|----4-----------4--------4------4-----------4--------4----2-|
D|--5-------5---5-------5-------5-------5---5-------5-------2-|
A|5-----5-5---5-----5-5-------5-----5-5---5-----5-5-------0---|
E|------------------------------------------------------------|
 
e|---------------------------------|
B|---------------------------------|
G|---------------------------------|
D|---------------------------------|
A|---0-------0-----------5---0---0-|
E|-5---5---5---5---53/5-------5---|
 
 
[Verse 2]
 
G                               A
        Such pressure you can apprehend
G                                 A
        In every trial you'll give
G                           A
        Enough, enough, not all
G                   A
        Finally you fall
 
[Instrumental]
 
  G
e|-----------------------------------------------------------|
B|-----------------------------------------------------------|
G|----4-----------4--------4------4-----------4--------4-----|
D|--5-------5---5-------5-------5-------5---5-------5--------|
A|5-----5-5---5-----5-5-------5-----5-5---5-----5-5------5h6-|
E|-----------------------------------------------------------|
 
A    Am
 
  G
e|-----------------------------------------------------------|
B|-----------------------------------------------------------|
G|----4-----------4--------4------4-----------4--------4-----|
D|--5-------5---5-------5-------5-------5---5-------5--------|
A|5-----5-5---5-----5-5-------5-----5-5---5-----5-5------5h6-|
E|-----------------------------------------------------------|
 
A    Am
 
[Verse 3]
 
G                          A
        I love to hear you sing
G                           A
        Along, along, along the crowd
G                      A
        Finally you're found
 
[Outro]
 
A
 
  A
e|----------0---------------------------0----5-|
B|--2---2-----2-----------2---------2----------|
G|--------------2-----2-2-2----2------2--------|
D|2---2---2-------2-2-2-2-2----2--2------------|
A|---------------------------------------------|
E|---------------------------------------------|
 
            

See also  ELLA MAI – Not Another Love Song Chords and Tabs for Guitar and Piano | The site that provides the most complete music chords
See also  Gravity by Sara Bareilles ( covered by Shakes Bahar) | gravity sara bareilles chords piano | #1 song chords

You can find more useful information here: See more

Talk Talk – For What Its Worth Chords | Ver. 1
And searches related to this topic

#Talk #Talk #Worth #Chords #Ver

Talk Talk – For What Its Worth Chords | Ver. 1

>>See more useful information provided by us here: https://australia.xemloibaihat.com/.

Review the information related to the topic Talk Talk – For What Its Worth Chords | Ver. 1
again

Australia.xemloibaihat.com | Talk Talk – For What Its Worth Chords | Ver. 1


[Intro]
 
  F
e|1-1-1-1-------------------------|
B|--------------------------------|
G|--------------------------------|
D|3-3-3-3-------------------------|
A|----------0----------5----0---0-|
E|--------5---5--53/5--------5---|
 
G            A            G            A
 
[Verse 1]
 
G                          A
        I love to hear you sing
G                          A
        In every style you give
G                          A
        Sometimes a touch aright
G                      A
        Finally you tried
 
[Instrumental]
 
  G                                                       A
e|------------------------------------------------------------|
B|----------------------------------------------------------2-|
G|----4-----------4--------4------4-----------4--------4----2-|
D|--5-------5---5-------5-------5-------5---5-------5-------2-|
A|5-----5-5---5-----5-5-------5-----5-5---5-----5-5-------0---|
E|------------------------------------------------------------|
 
e|---------------------------------|
B|---------------------------------|
G|---------------------------------|
D|---------------------------------|
A|---0-------0-----------5---0---0-|
E|-5---5---5---5---53/5-------5---|
 
 
[Verse 2]
 
G                               A
        Such pressure you can apprehend
G                                 A
        In every trial you'll give
G                           A
        Enough, enough, not all
G                   A
        Finally you fall
 
[Instrumental]
 
  G
e|-----------------------------------------------------------|
B|-----------------------------------------------------------|
G|----4-----------4--------4------4-----------4--------4-----|
D|--5-------5---5-------5-------5-------5---5-------5--------|
A|5-----5-5---5-----5-5-------5-----5-5---5-----5-5------5h6-|
E|-----------------------------------------------------------|
 
A    Am
 
  G
e|-----------------------------------------------------------|
B|-----------------------------------------------------------|
G|----4-----------4--------4------4-----------4--------4-----|
D|--5-------5---5-------5-------5-------5---5-------5--------|
A|5-----5-5---5-----5-5-------5-----5-5---5-----5-5------5h6-|
E|-----------------------------------------------------------|
 
A    Am
 
[Verse 3]
 
G                          A
        I love to hear you sing
G                           A
        Along, along, along the crowd
G                      A
        Finally you're found
 
[Outro]
 
A
 
  A
e|----------0---------------------------0----5-|
B|--2---2-----2-----------2---------2----------|
G|--------------2-----2-2-2----2------2--------|
D|2---2---2-------2-2-2-2-2----2--2------------|
A|---------------------------------------------|
E|---------------------------------------------|
 
            

See also  Seether - Feels Like Dying Chords | Ver. 1 | The site that provides the most complete music chords

Thank you very much for your interest in our article. We hope this information is of great value to you.

Leave a Reply

Your email address will not be published.