Home » TAYLOR SWIFT – Willow Guitar Tabs | The site that provides the most complete music chords

TAYLOR SWIFT – Willow Guitar Tabs | The site that provides the most complete music chords

Are you looking for a topic TAYLOR SWIFT – Willow Guitar Tabs right? If so, then you can watch it right here.

TAYLOR SWIFT – Willow Guitar Tabs | You can find many other song chords here

 
Original Key: E Minor
Time Signature: 4/4
Tempo: 84
Suggested Strumming: DU,DU,DU,DU
c h o r d  z o n e . o r g

Legend
L - tied note
x - dead note
h - hammer on/pull off
b - bend
s - slide
~ - vibrato
g - ghost note
> - accentuated note
t - trill
M - palm mute
. - staccato
P - popping (bass)
S - slapping (bass)
+ - tapping
W - wide vibrato
< - fade in
w - whammy bar
= - tremolo picking
v - brush up
^ - brush down
V - pick stroke up
n - pick stroke down


E |-------|--0--------3--------2--3-----------2--------0--2----|
B |-------|--------------------------3-------------------------|
G |-------|----------------------------------------------------|
D |-------|----------------------------------------------------|
A |-------|----------------------------------------------------|
E |-------|----------------------------------------------------|


--0--------3--------2--3-----------2--------0--2----|
--------------------------3-------------------------|
----------------------------------------------------|
----------------------------------------------------|
----------------------------------------------------|
----------------------------------------------------|


--0--------3--------2--3-----------2-----------2----|
--------------------------3-----------------3-------|
----------------------------------------------------|
----------------------------------------------------|
----------------------------------------------------|
----------------------------------------------------|


-----------0L-0--------0----------------------------|
--1-----------------3-----1--0-----0--1L-1----------|
--------------------------------2-------------------|
----------------------------------------------------|
----------------------------------------------------|
----------------------------------------------------|


--3-----3--3--7--7--7--7--2-----2-----5-----5-------|--3-------------|
----------------------------------------------------|----------------|
----------------------------------------------------|----------------|
----------------------------------------------------|----------------|
----------------------------------------------------|----------------|
----------------------------------------------------|----------------|


--3-----3--3--7--7--7--7--2-----2-----5-----5-------|--3-------------|
----------------------------------------------------|----------------|
----------------------------------------------------|----------------|
----------------------------------------------------|----------------|
----------------------------------------------------|----------------|
----------------------------------------------------|----------------|


--------------8--7--5--3--3--5--5-----7-------------|
----------------------------------------------------|
----------------------------------------------------|
----------------------------------------------------|
----------------------------------------------------|
----------------------------------------------------|


--------------8--7--5--3--3--5--5--5--5--5--7-------|
----------------------------------------------------|
----------------------------------------------------|
----------------------------------------------------|
----------------------------------------------------|
----------------------------------------------------|


--3-----------3-----3--3--5--7--7--5--5-----5L------|--5--0----------|
----------------------------------------------------|----------------|
----------------------------------------------------|----------------|
----------------------------------------------------|----------------|
----------------------------------------------------|----------------|
----------------------------------------------------|----------------|


--------------3--5--7-----5--------5--5-----3-------|
----------------------------------------------------|
----------------------------------------------------|
----------------------------------------------------|
----------------------------------------------------|
----------------------------------------------------|

Australia.xemloibaihat.com
 

--5-----------3--5--7-----5--------5--8--7--5--3----|
----------------------------------------------------|
----------------------------------------------------|
----------------------------------------------------|
----------------------------------------------------|
----------------------------------------------------|


--3-----------3--5--7-----5--------5--5-----3-------|
----------------------------------------------------|
----------------------------------------------------|
----------------------------------------------------|
----------------------------------------------------|
----------------------------------------------------|


--5-----5--3--5-----5--3----|--5-------------|
----------------------------|----------------|
----------------------------|----------------|
----------------------------|----------------|
----------------------------|----------------|
----------------------------|----------------|


--3-----3--3--7--7--7--7--2-----2-----5-----5-------|--3-------------|
----------------------------------------------------|----------------|
----------------------------------------------------|----------------|
----------------------------------------------------|----------------|
----------------------------------------------------|----------------|
----------------------------------------------------|----------------|


--3-----3--3--7--7--7--7--2-----2-----5-----5-------|--3-------------|
----------------------------------------------------|----------------|
----------------------------------------------------|----------------|
----------------------------------------------------|----------------|
----------------------------------------------------|----------------|
----------------------------------------------------|----------------|


--------------8--7--5--3--3--5--5-----7-------------|
----------------------------------------------------|
----------------------------------------------------|
----------------------------------------------------|
----------------------------------------------------|
----------------------------------------------------|


--------------8--7--5--3--3--5--5--5--5--5--7-------|
----------------------------------------------------|
----------------------------------------------------|
----------------------------------------------------|
----------------------------------------------------|
----------------------------------------------------|


--3-----------3-----3--3--5--7--7--5--5-----5L------|--5--0----------|
----------------------------------------------------|----------------|
----------------------------------------------------|----------------|
----------------------------------------------------|----------------|
----------------------------------------------------|----------------|
----------------------------------------------------|----------------|


--------------3--5--7-----5--------5--5-----3-------|
----------------------------------------------------|
----------------------------------------------------|
----------------------------------------------------|
----------------------------------------------------|
----------------------------------------------------|


--5-----------3--5--7-----5--------5--8--7--5--3----|
----------------------------------------------------|
----------------------------------------------------|
----------------------------------------------------|
----------------------------------------------------|
----------------------------------------------------|


--3-----------3--5--7-----5--------5--5-----3-------|
----------------------------------------------------|
----------------------------------------------------|
----------------------------------------------------|
----------------------------------------------------|
----------------------------------------------------|

Australia.xemloibaihat.com
 

--5-----5--3--5-----5--3----|
----------------------------|
----------------------------|
----------------------------|
----------------------------|
----------------------------|


--5-----------3--5--7-----5--------5--5-----3-------|
----------------------------------------------------|
----------------------------------------------------|
----------------------------------------------------|
----------------------------------------------------|
----------------------------------------------------|


--5-----------3--5--7-----5--------5--8--7--5--3----|
----------------------------------------------------|
----------------------------------------------------|
----------------------------------------------------|
----------------------------------------------------|
----------------------------------------------------|


--3-----------3--5--7-----5--------5--5-----3-------|
----------------------------------------------------|
----------------------------------------------------|
----------------------------------------------------|
----------------------------------------------------|
----------------------------------------------------|


--5-----5--3--5-----5--3----|--5----|-------||
----------------------------|-------|-------||
----------------------------|-------|-------||
----------------------------|-------|-------||
----------------------------|-------|-------||
----------------------------|-------|-------||


You can find more useful information here: https://australia.xemloibaihat.com/chord/

See also  Nothing On You ft Bruno Mars Chords | The site that provides the most complete music chords
See also  Logan Mize - American Livin Chords | Ver. 1 | The site that provides the most complete music chords

TAYLOR SWIFT – Willow Guitar Tabs And searches related to this topic

#TAYLOR #SWIFT #Willow #Guitar #Tabs

TAYLOR SWIFT – Willow Guitar Tabs

>>See more useful information provided by us here: https://australia.xemloibaihat.com/.

Review the information related to the topic TAYLOR SWIFT – Willow Guitar Tabs again

 
Original Key: E Minor
Time Signature: 4/4
Tempo: 84
Suggested Strumming: DU,DU,DU,DU
c h o r d  z o n e . o r g

Legend
L - tied note
x - dead note
h - hammer on/pull off
b - bend
s - slide
~ - vibrato
g - ghost note
> - accentuated note
t - trill
M - palm mute
. - staccato
P - popping (bass)
S - slapping (bass)
+ - tapping
W - wide vibrato
< - fade in
w - whammy bar
= - tremolo picking
v - brush up
^ - brush down
V - pick stroke up
n - pick stroke down


E |-------|--0--------3--------2--3-----------2--------0--2----|
B |-------|--------------------------3-------------------------|
G |-------|----------------------------------------------------|
D |-------|----------------------------------------------------|
A |-------|----------------------------------------------------|
E |-------|----------------------------------------------------|


--0--------3--------2--3-----------2--------0--2----|
--------------------------3-------------------------|
----------------------------------------------------|
----------------------------------------------------|
----------------------------------------------------|
----------------------------------------------------|


--0--------3--------2--3-----------2-----------2----|
--------------------------3-----------------3-------|
----------------------------------------------------|
----------------------------------------------------|
----------------------------------------------------|
----------------------------------------------------|


-----------0L-0--------0----------------------------|
--1-----------------3-----1--0-----0--1L-1----------|
--------------------------------2-------------------|
----------------------------------------------------|
----------------------------------------------------|
----------------------------------------------------|


--3-----3--3--7--7--7--7--2-----2-----5-----5-------|--3-------------|
----------------------------------------------------|----------------|
----------------------------------------------------|----------------|
----------------------------------------------------|----------------|
----------------------------------------------------|----------------|
----------------------------------------------------|----------------|


--3-----3--3--7--7--7--7--2-----2-----5-----5-------|--3-------------|
----------------------------------------------------|----------------|
----------------------------------------------------|----------------|
----------------------------------------------------|----------------|
----------------------------------------------------|----------------|
----------------------------------------------------|----------------|


--------------8--7--5--3--3--5--5-----7-------------|
----------------------------------------------------|
----------------------------------------------------|
----------------------------------------------------|
----------------------------------------------------|
----------------------------------------------------|


--------------8--7--5--3--3--5--5--5--5--5--7-------|
----------------------------------------------------|
----------------------------------------------------|
----------------------------------------------------|
----------------------------------------------------|
----------------------------------------------------|


--3-----------3-----3--3--5--7--7--5--5-----5L------|--5--0----------|
----------------------------------------------------|----------------|
----------------------------------------------------|----------------|
----------------------------------------------------|----------------|
----------------------------------------------------|----------------|
----------------------------------------------------|----------------|


--------------3--5--7-----5--------5--5-----3-------|
----------------------------------------------------|
----------------------------------------------------|
----------------------------------------------------|
----------------------------------------------------|
----------------------------------------------------|

Australia.xemloibaihat.com
 

--5-----------3--5--7-----5--------5--8--7--5--3----|
----------------------------------------------------|
----------------------------------------------------|
----------------------------------------------------|
----------------------------------------------------|
----------------------------------------------------|


--3-----------3--5--7-----5--------5--5-----3-------|
----------------------------------------------------|
----------------------------------------------------|
----------------------------------------------------|
----------------------------------------------------|
----------------------------------------------------|


--5-----5--3--5-----5--3----|--5-------------|
----------------------------|----------------|
----------------------------|----------------|
----------------------------|----------------|
----------------------------|----------------|
----------------------------|----------------|


--3-----3--3--7--7--7--7--2-----2-----5-----5-------|--3-------------|
----------------------------------------------------|----------------|
----------------------------------------------------|----------------|
----------------------------------------------------|----------------|
----------------------------------------------------|----------------|
----------------------------------------------------|----------------|


--3-----3--3--7--7--7--7--2-----2-----5-----5-------|--3-------------|
----------------------------------------------------|----------------|
----------------------------------------------------|----------------|
----------------------------------------------------|----------------|
----------------------------------------------------|----------------|
----------------------------------------------------|----------------|


--------------8--7--5--3--3--5--5-----7-------------|
----------------------------------------------------|
----------------------------------------------------|
----------------------------------------------------|
----------------------------------------------------|
----------------------------------------------------|


--------------8--7--5--3--3--5--5--5--5--5--7-------|
----------------------------------------------------|
----------------------------------------------------|
----------------------------------------------------|
----------------------------------------------------|
----------------------------------------------------|


--3-----------3-----3--3--5--7--7--5--5-----5L------|--5--0----------|
----------------------------------------------------|----------------|
----------------------------------------------------|----------------|
----------------------------------------------------|----------------|
----------------------------------------------------|----------------|
----------------------------------------------------|----------------|


--------------3--5--7-----5--------5--5-----3-------|
----------------------------------------------------|
----------------------------------------------------|
----------------------------------------------------|
----------------------------------------------------|
----------------------------------------------------|


--5-----------3--5--7-----5--------5--8--7--5--3----|
----------------------------------------------------|
----------------------------------------------------|
----------------------------------------------------|
----------------------------------------------------|
----------------------------------------------------|


--3-----------3--5--7-----5--------5--5-----3-------|
----------------------------------------------------|
----------------------------------------------------|
----------------------------------------------------|
----------------------------------------------------|
----------------------------------------------------|

Australia.xemloibaihat.com
 

--5-----5--3--5-----5--3----|
----------------------------|
----------------------------|
----------------------------|
----------------------------|
----------------------------|


--5-----------3--5--7-----5--------5--5-----3-------|
----------------------------------------------------|
----------------------------------------------------|
----------------------------------------------------|
----------------------------------------------------|
----------------------------------------------------|


--5-----------3--5--7-----5--------5--8--7--5--3----|
----------------------------------------------------|
----------------------------------------------------|
----------------------------------------------------|
----------------------------------------------------|
----------------------------------------------------|


--3-----------3--5--7-----5--------5--5-----3-------|
----------------------------------------------------|
----------------------------------------------------|
----------------------------------------------------|
----------------------------------------------------|
----------------------------------------------------|


--5-----5--3--5-----5--3----|--5----|-------||
----------------------------|-------|-------||
----------------------------|-------|-------||
----------------------------|-------|-------||
----------------------------|-------|-------||
----------------------------|-------|-------||


Thank you very much for your interest in our article. We hope this information is of great value to you.

See also  The National Parks - I Can Feel It Chords | Ver. 1 | The site that provides the most complete music chords

Leave a Reply

Your email address will not be published.