Home » Troye Sivan – Youth Tabs | Ver. 1 | The site that provides the most complete music chords

Troye Sivan – Youth Tabs | Ver. 1 | The site that provides the most complete music chords

by Andy Frank

Are you looking for a topic Troye Sivan – Youth Tabs | Ver. 1
right? If so, then you can watch it right here.

Troye Sivan – Youth Tabs | Ver. 1
| You can find many other song chords here

Australia.xemloibaihat.com | Troye Sivan – Youth Tabs | Ver. 1


[Intro]
 
e|----------------------------------------------------------------------|
B|-----------------0------------------0-------------------0-0----0------|
G|-2-0-0h2-2-2-0--2-0-0h2-2-2-0--2-2-0-0h2-2-2-0------------------------|
D|------------------------0------------------------------------2---2----| X2
A|-------------------------------------------------------------3----3---|
E|------3-------------------------------------0-------------------------|
 
[Verse 1]
 
e|-----------------------------------------------0----|
B|-------3-1-0-------3-1-0------3-1-0-------3--0------|
G|-0-0-0------2-2-0-------2-2-0------2-2-0------2-----|
D|--------------------0-------------------------------|
A|---------------------------------------------3------|
E|-------3------------------------0-------------------|
 
[Chorus]
 
e|-3-3---------------------------3-3--------------------------------------|
B|----0-0-1-1-0-0-0-0-1-3-0-0----0-0-1-1-0-0-0-0-1-3-0-0------------------|
G|------------------------------------------------------------------------|
D|-------------0----------------------------------------------------------|
A|---------------------------------------------3--------------------------|
E|-3-3---------------------------0----------------------------------------|
 
e|-3-3-----------------------------------------------------------|
B|-----0-/-5-0-0--------------------------------0-0---1-1-1-0----|
G|----------------2-2-2-2-0-/5-4-2-0---0h2-2-----0---------------|
D|----------------0----------------------2-----------------------|
A|--------------------------------------------------3------------|
E|-3-3-----------------------------------0-----------------------|
 
e|-5h7-5-5h7-5-10h12-10—5h7-5-5h7-5-------5-5h7-5-5h7-5-10h12-10-|
B|----------------------------------------------5h8-----------------------------|
G|-0------------------------------------------7---------------------------------|
D|-----------------------------0------------------------------------------------|
A|------------------------------------------------------------------------------|
E|-----------------------------------------------------0------------------------|
 
e|-3h5-3-3h5-3-------------------------------------|
B|-------------------------------------------------|
G|-------------------------------------------------|
D|-------------------------------------------------|
A|-3-----------------------------------------------|
E|-------------------------------------------------|
 
[Verse 2]
 
e|----------------------------------------------------------------------|
B|-----------------0------------------0-------------------0-0----0------|
G|-2-0-0h2-2-2-0--2-0-0h2-2-2-0--2-2-0-0h2-2-2-0------------------------|
D|------------------------0------------------------------------2---2----|
A|-------------------------------------------------------------3----3---|
E|------3-------------------------------------0-------------------------|
 
e|----------------------------------------------------------------|
B|-----------------0----------------0----------------0--1-0-------|
G|-0-0-0-0—0h2---0-0-0-0—0h2--0-0-0-0—0h2---------2---------------|
D|----------2---------------0-2---------------2-------------------|
A|--------------------------------------------------------3-------|
E|---------3----------------------------------0-------------------|
 
e|-----------------------------------------------0--------|
B|-------3-1-0-------3-1-0------3-1-0-------3--0----------|
G|-0-0-0------2-2-0-------2-2-0------2-2-0------2---------|
D|--------------------0-----------------------------------|
A|---------------------------------------------3----------|
E|-------3------------------------0-----------------------|
 
[Chorus]
 
e|-3-3---------------------------3-3--------------------------------------|
B|----0-0-1-1-0-0-0-0-1-3-0-0----0-0-1-1-0-0-0-0-1-3-0-0------------------|
G|------------------------------------------------------------------------|
D|-------------0----------------------------------------------------------|
A|---------------------------------------------3--------------------------|
E|-3-3---------------------------0----------------------------------------|
 
e|-3-3-----------------------------------------------------------|
B|-----0-/-5-0-0--------------------------------0-0---1-1-1-0----|
G|----------------2-2-2-2-0-/5-4-2-0---0h2-2-----0---------------|
D|----------------0----------------------2-----------------------|
A|--------------------------------------------------3------------|
E|-3-3-----------------------------------0-----------------------|
 
e|-5h7-5-5h7-5-10h12-10—5h7-5-5h7-5-------5-5h7-5-5h7-5-10h12-10----------------|
B|----------------------------------------------5h8-----------------------------|
G|-0------------------------------------------7---------------------------------|
D|-----------------------------0------------------------------------------------|
A|------------------------------------------------------------------------------|
E|-----------------------------------------------------0------------------------|
 
e|-3h5-3-3-8-8-8-7---------------------------------|
B|-------------------------------------------------|
G|-------------------------------------------------|
D|-------------------------------------------------|
A|-3-----------------------------------------------|
E|-------------------------------------------------|
 
e|-5h7-5-5h7-5-10h12-10—5h7-5-5h7-5-------5-5h7-5-5h7-5-10h12-10----------------|
B|----------------------------------------------5h8-----------------------------|
G|-0------------------------------------------7---------------------------------|
D|-----------------------------0------------------------------------------------|
A|------------------------------------------------------------------------------|
E|-----------------------------------------------------0------------------------|
 
e|-3h5-3-3h5-3-------------------------------------|
B|-------------------------------------------------|
G|-------------------------------------------------|
D|-------------------------------------------------|
A|-3-----------------------------------------------|
E|--------------------------------------------------|
 
[Verse 3]
 
e|-3-3----------------------------3-3--------------------------------|
B|--------------------------0--------------------------------0-------|
G|-----0-0-2-2-0-0-0-0h2--0-0------0-0-2-2-0-0-0-0h2---0-0-----------|
D|--------------0----------------------------------------------------|
A|------------------------------------------------3------------------|
E|-3-3------------------------------0--------------------------------|
 
e|-3-3-----------------------------------------------------------|
B|-----0-/-5-0-0--------------------------------0-0---1-1-1-0----|
G|----------------2-2-2-2-0-/5-4-2-0---0h2-2-----0---------------|
D|----------------0----------------------2-----------------------|
A|--------------------------------------------------3------------|
E|-3-3-----------------------------------0-----------------------|
 
[Chorus]
 
e|-5h7-5-5h7-5-10h12-10—5h7-5-5h7-5-------5-5h7-5-5h7-5-10h12-10----------------|
B|----------------------------------------------5h8-----------------------------|
G|-0------------------------------------------7---------------------------------|
D|-----------------------------0------------------------------------------------|
A|------------------------------------------------------------------------------|
E|-----------------------------------------------------0------------------------|
 
e|-3h5-3-3-8-8-8-7---------------------------------|
B|-------------------------------------------------|
G|-------------------------------------------------|
D|-------------------------------------------------|
A|-3-----------------------------------------------|
E|-------------------------------------------------|
 
e|-5h7-5-5h7-5-10h12-10—5h7-5-5h7-5-------5-5h7-5-5h7-5-10h12-10----------------|
B|----------------------------------------------5h8-----------------------------|
G|-0------------------------------------------7---------------------------------|
D|-----------------------------0------------------------------------------------|
A|------------------------------------------------------------------------------|
E|-----------------------------------------------------0------------------------|
 
e|-3h5-3-3-8-8-8-7---------------------------------|
B|-------------------------------------------------|
G|-------------------------------------------------|
D|-------------------------------------------------|
A|-3-----------------------------------------------|
E|-------------------------------------------------|
 
            

You can find more useful information here: Australia.xemloibaihat.com/chord

Troye Sivan – Youth Tabs | Ver. 1
And searches related to this topic

#Troye #Sivan #Youth #Tabs #Ver

Troye Sivan – Youth Tabs | Ver. 1

>>See more useful information provided by us here: See more here.

Review the information related to the topic Troye Sivan – Youth Tabs | Ver. 1
again

Australia.xemloibaihat.com | Troye Sivan – Youth Tabs | Ver. 1


[Intro]
 
e|----------------------------------------------------------------------|
B|-----------------0------------------0-------------------0-0----0------|
G|-2-0-0h2-2-2-0--2-0-0h2-2-2-0--2-2-0-0h2-2-2-0------------------------|
D|------------------------0------------------------------------2---2----| X2
A|-------------------------------------------------------------3----3---|
E|------3-------------------------------------0-------------------------|
 
[Verse 1]
 
e|-----------------------------------------------0----|
B|-------3-1-0-------3-1-0------3-1-0-------3--0------|
G|-0-0-0------2-2-0-------2-2-0------2-2-0------2-----|
D|--------------------0-------------------------------|
A|---------------------------------------------3------|
E|-------3------------------------0-------------------|
 
[Chorus]
 
e|-3-3---------------------------3-3--------------------------------------|
B|----0-0-1-1-0-0-0-0-1-3-0-0----0-0-1-1-0-0-0-0-1-3-0-0------------------|
G|------------------------------------------------------------------------|
D|-------------0----------------------------------------------------------|
A|---------------------------------------------3--------------------------|
E|-3-3---------------------------0----------------------------------------|
 
e|-3-3-----------------------------------------------------------|
B|-----0-/-5-0-0--------------------------------0-0---1-1-1-0----|
G|----------------2-2-2-2-0-/5-4-2-0---0h2-2-----0---------------|
D|----------------0----------------------2-----------------------|
A|--------------------------------------------------3------------|
E|-3-3-----------------------------------0-----------------------|
 
e|-5h7-5-5h7-5-10h12-10—5h7-5-5h7-5-------5-5h7-5-5h7-5-10h12-10-|
B|----------------------------------------------5h8-----------------------------|
G|-0------------------------------------------7---------------------------------|
D|-----------------------------0------------------------------------------------|
A|------------------------------------------------------------------------------|
E|-----------------------------------------------------0------------------------|
 
e|-3h5-3-3h5-3-------------------------------------|
B|-------------------------------------------------|
G|-------------------------------------------------|
D|-------------------------------------------------|
A|-3-----------------------------------------------|
E|-------------------------------------------------|
 
[Verse 2]
 
e|----------------------------------------------------------------------|
B|-----------------0------------------0-------------------0-0----0------|
G|-2-0-0h2-2-2-0--2-0-0h2-2-2-0--2-2-0-0h2-2-2-0------------------------|
D|------------------------0------------------------------------2---2----|
A|-------------------------------------------------------------3----3---|
E|------3-------------------------------------0-------------------------|
 
e|----------------------------------------------------------------|
B|-----------------0----------------0----------------0--1-0-------|
G|-0-0-0-0—0h2---0-0-0-0—0h2--0-0-0-0—0h2---------2---------------|
D|----------2---------------0-2---------------2-------------------|
A|--------------------------------------------------------3-------|
E|---------3----------------------------------0-------------------|
 
e|-----------------------------------------------0--------|
B|-------3-1-0-------3-1-0------3-1-0-------3--0----------|
G|-0-0-0------2-2-0-------2-2-0------2-2-0------2---------|
D|--------------------0-----------------------------------|
A|---------------------------------------------3----------|
E|-------3------------------------0-----------------------|
 
[Chorus]
 
e|-3-3---------------------------3-3--------------------------------------|
B|----0-0-1-1-0-0-0-0-1-3-0-0----0-0-1-1-0-0-0-0-1-3-0-0------------------|
G|------------------------------------------------------------------------|
D|-------------0----------------------------------------------------------|
A|---------------------------------------------3--------------------------|
E|-3-3---------------------------0----------------------------------------|
 
e|-3-3-----------------------------------------------------------|
B|-----0-/-5-0-0--------------------------------0-0---1-1-1-0----|
G|----------------2-2-2-2-0-/5-4-2-0---0h2-2-----0---------------|
D|----------------0----------------------2-----------------------|
A|--------------------------------------------------3------------|
E|-3-3-----------------------------------0-----------------------|
 
e|-5h7-5-5h7-5-10h12-10—5h7-5-5h7-5-------5-5h7-5-5h7-5-10h12-10----------------|
B|----------------------------------------------5h8-----------------------------|
G|-0------------------------------------------7---------------------------------|
D|-----------------------------0------------------------------------------------|
A|------------------------------------------------------------------------------|
E|-----------------------------------------------------0------------------------|
 
e|-3h5-3-3-8-8-8-7---------------------------------|
B|-------------------------------------------------|
G|-------------------------------------------------|
D|-------------------------------------------------|
A|-3-----------------------------------------------|
E|-------------------------------------------------|
 
e|-5h7-5-5h7-5-10h12-10—5h7-5-5h7-5-------5-5h7-5-5h7-5-10h12-10----------------|
B|----------------------------------------------5h8-----------------------------|
G|-0------------------------------------------7---------------------------------|
D|-----------------------------0------------------------------------------------|
A|------------------------------------------------------------------------------|
E|-----------------------------------------------------0------------------------|
 
e|-3h5-3-3h5-3-------------------------------------|
B|-------------------------------------------------|
G|-------------------------------------------------|
D|-------------------------------------------------|
A|-3-----------------------------------------------|
E|--------------------------------------------------|
 
[Verse 3]
 
e|-3-3----------------------------3-3--------------------------------|
B|--------------------------0--------------------------------0-------|
G|-----0-0-2-2-0-0-0-0h2--0-0------0-0-2-2-0-0-0-0h2---0-0-----------|
D|--------------0----------------------------------------------------|
A|------------------------------------------------3------------------|
E|-3-3------------------------------0--------------------------------|
 
e|-3-3-----------------------------------------------------------|
B|-----0-/-5-0-0--------------------------------0-0---1-1-1-0----|
G|----------------2-2-2-2-0-/5-4-2-0---0h2-2-----0---------------|
D|----------------0----------------------2-----------------------|
A|--------------------------------------------------3------------|
E|-3-3-----------------------------------0-----------------------|
 
[Chorus]
 
e|-5h7-5-5h7-5-10h12-10—5h7-5-5h7-5-------5-5h7-5-5h7-5-10h12-10----------------|
B|----------------------------------------------5h8-----------------------------|
G|-0------------------------------------------7---------------------------------|
D|-----------------------------0------------------------------------------------|
A|------------------------------------------------------------------------------|
E|-----------------------------------------------------0------------------------|
 
e|-3h5-3-3-8-8-8-7---------------------------------|
B|-------------------------------------------------|
G|-------------------------------------------------|
D|-------------------------------------------------|
A|-3-----------------------------------------------|
E|-------------------------------------------------|
 
e|-5h7-5-5h7-5-10h12-10—5h7-5-5h7-5-------5-5h7-5-5h7-5-10h12-10----------------|
B|----------------------------------------------5h8-----------------------------|
G|-0------------------------------------------7---------------------------------|
D|-----------------------------0------------------------------------------------|
A|------------------------------------------------------------------------------|
E|-----------------------------------------------------0------------------------|
 
e|-3h5-3-3-8-8-8-7---------------------------------|
B|-------------------------------------------------|
G|-------------------------------------------------|
D|-------------------------------------------------|
A|-3-----------------------------------------------|
E|-------------------------------------------------|
 
            

Thank you very much for your interest in our article. We hope this information is of great value to you.

READ  ZARA LARSSON – What Happens Here Chords and Tabs for Guitar and Piano | The site that provides the most complete music chords

You may also like

Leave a Comment