Home » VILEN – Chidiya Guitar Tabs | The site that provides the most complete music chords

VILEN – Chidiya Guitar Tabs | The site that provides the most complete music chords

Are you looking for a topic VILEN – Chidiya Guitar Tabs right? If so, then you can watch it right here.

VILEN – Chidiya Guitar Tabs | You can find many other song chords here

 
Original Key: Gb Major
Time Signature: 4/4
Tempo: 88
Suggested Strumming: DU,DU,DU,DU
c h o r d  z o n e . o r g

Legend
L - tied note
x - dead note
h - hammer on/pull off
b - bend
s - slide
~ - vibrato
g - ghost note
> - accentuated note
t - trill
M - palm mute
. - staccato
P - popping (bass)
S - slapping (bass)
+ - tapping
W - wide vibrato
< - fade in
w - whammy bar
= - tremolo picking
v - brush up
^ - brush down
V - pick stroke up
n - pick stroke down


E |-------|--4--------6L-6-------------|-----------1L-1-------------|
B |-------|----------------------------|--4-------------------------|
G |-------|----------------------------|----------------------------|
D |-------|----------------------------|----------------------------|
A |-------|----------------------------|----------------------------|
E |-------|----------------------------|----------------------------|


--4--------6L-6-------------|-----------1L-1-------------|
----------------------------|--4-------------------------|
----------------------------|----------------------------|
----------------------------|----------------------------|
----------------------------|----------------------------|
----------------------------|----------------------------|


--6--------2L-2-----2--1----|-----------1L-1-------------|
----------------------------|--4-------------------------|
----------------------------|----------------------------|
----------------------------|----------------------------|
----------------------------|----------------------------|
----------------------------|----------------------------|

Australia.xemloibaihat.com
 

--6--------2L-2-----2--1----|-----------1L-1-------------|
----------------------------|--4-------------------------|
----------------------------|----------------------------|
----------------------------|----------------------------|
----------------------------|----------------------------|
----------------------------|----------------------------|


--6--------2L-2-----2--1----|
----------------------------|
----------------------------|
----------------------------|
----------------------------|
----------------------------|


-----------2--------1L----1-----------2-----1-------|
--4-------------------------------------------------|
----------------------------------------------------|
----------------------------------------------------|
----------------------------------------------------|
----------------------------------------------------|


-----------2--------2L----2-------------------------|-------|
--4-------------------------------------------------|-------|
----------------------------------------------------|-------|
----------------------------------------------------|-------|
----------------------------------------------------|-------|
----------------------------------------------------|-------|


--6--------2L-2-----2--1----|-----------1L-1-------------|
----------------------------|--4-------------------------|
----------------------------|----------------------------|
----------------------------|----------------------------|
----------------------------|----------------------------|
----------------------------|----------------------------|


--6--------2L-2-----2--1----|-----------1L-1-------------|
----------------------------|--4-------------------------|
----------------------------|----------------------------|
----------------------------|----------------------------|
----------------------------|----------------------------|
----------------------------|----------------------------|


--6--------2L-2-----2--1----|
----------------------------|
----------------------------|
----------------------------|
----------------------------|
----------------------------|


-----------2--------1L----1-----------2-----1-------|
--4-------------------------------------------------|
----------------------------------------------------|
----------------------------------------------------|
----------------------------------------------------|
----------------------------------------------------|


-----------2--------2L----2-----------------6-------|
--4-------------------------------------------------|
----------------------------------------------------|
----------------------------------------------------|
----------------------------------------------------|
----------------------------------------------------|


--4-----------------2--1----|----------------------------|
----------------------------|--2--2--2--2--2--2--4--2----|
----------------------------|----------------------------|
----------------------------|----------------------------|
----------------------------|----------------------------|
----------------------------|----------------------------|


--------------------2--1----|--------------------1-------|
----------------------------|--2-----2--2--2-------------|
--1-------------------------|----------------------------|
----------------------------|----------------------------|
----------------------------|----------------------------|
----------------------------|----------------------------|


--2-----------------2--1----|----------------------------|
----------------------------|--2--2--2--2--2--2--4--2----|
----------------------------|----------------------------|
----------------------------|----------------------------|
----------------------------|----------------------------|
----------------------------|----------------------------|


--------------------------------------2-----1-------|
----------------------------------------------------|
--1-------------------------------------------------|
----------------------------------------------------|
----------------------------------------------------|
----------------------------------------------------|


--------------------1-------|--2--------6--4--------6----|
--2-----2--2--2-------------|----------------------------|
----------------------------|----------------------------|
----------------------------|----------------------------|
----------------------------|----------------------------|
----------------------------|----------------------------|


--6--------2L-2-----2--1----|-----------1L-1-------------|
----------------------------|--4-------------------------|
----------------------------|----------------------------|
----------------------------|----------------------------|
----------------------------|----------------------------|
----------------------------|----------------------------|


--6--------2L-2-----2--1----|-----------1L-1-------------|
----------------------------|--4-------------------------|
----------------------------|----------------------------|
----------------------------|----------------------------|
----------------------------|----------------------------|
----------------------------|----------------------------|


--6--------2L-2-----2--1----|
----------------------------|
----------------------------|
----------------------------|
----------------------------|
----------------------------|


-----------2--------1L----1-----------2-----1-------|
--4-------------------------------------------------|
----------------------------------------------------|
----------------------------------------------------|
----------------------------------------------------|
----------------------------------------------------|


-----------2--------2L----2-------------------------|-------|
--4-------------------------------------------------|-------|
----------------------------------------------------|-------|
----------------------------------------------------|-------|
----------------------------------------------------|-------|
----------------------------------------------------|-------|


--6--------2L-2-----2--1----|-----------1L-1-------------|
----------------------------|--4-------------------------|
----------------------------|----------------------------|
----------------------------|----------------------------|
----------------------------|----------------------------|
----------------------------|----------------------------|


--6--------2L-2-----2--1----|-----------1L-1-------------|
----------------------------|--4-------------------------|
----------------------------|----------------------------|
----------------------------|----------------------------|
----------------------------|----------------------------|
----------------------------|----------------------------|


--6--------2L-2-----2--1----|
----------------------------|
----------------------------|
----------------------------|
----------------------------|
----------------------------|


Australia.xemloibaihat.com
 
-----------2--------1L----1-----------2-----1-------|
--4-------------------------------------------------|
----------------------------------------------------|
----------------------------------------------------|
----------------------------------------------------|
----------------------------------------------------|


-----------2--------2L----2-----------------6-------|--4L---|
--4-------------------------------------------------|-------|
----------------------------------------------------|-------|
----------------------------------------------------|-------|
----------------------------------------------------|-------|
----------------------------------------------------|-------|


--4-------------------------------------------------||
----------------------------------------------------||
----------------------------------------------------||
----------------------------------------------------||
----------------------------------------------------||
----------------------------------------------------||


 

You can find more useful information here: See more here

See also  CHORDS: LP - One Last Time Chords on Piano & Ukulele | | The site that provides the most complete music chords
See also  ARIANA GRANDE – Six Thirty Chords and Tabs for Guitar and Piano | The site that provides the most complete music chords

VILEN – Chidiya Guitar Tabs And searches related to this topic

#VILEN #Chidiya #Guitar #Tabs

VILEN – Chidiya Guitar Tabs

>>See more useful information provided by us here: Australia.xemloibaihat.com.

Review the information related to the topic VILEN – Chidiya Guitar Tabs again

 
Original Key: Gb Major
Time Signature: 4/4
Tempo: 88
Suggested Strumming: DU,DU,DU,DU
c h o r d  z o n e . o r g

Legend
L - tied note
x - dead note
h - hammer on/pull off
b - bend
s - slide
~ - vibrato
g - ghost note
> - accentuated note
t - trill
M - palm mute
. - staccato
P - popping (bass)
S - slapping (bass)
+ - tapping
W - wide vibrato
< - fade in
w - whammy bar
= - tremolo picking
v - brush up
^ - brush down
V - pick stroke up
n - pick stroke down


E |-------|--4--------6L-6-------------|-----------1L-1-------------|
B |-------|----------------------------|--4-------------------------|
G |-------|----------------------------|----------------------------|
D |-------|----------------------------|----------------------------|
A |-------|----------------------------|----------------------------|
E |-------|----------------------------|----------------------------|


--4--------6L-6-------------|-----------1L-1-------------|
----------------------------|--4-------------------------|
----------------------------|----------------------------|
----------------------------|----------------------------|
----------------------------|----------------------------|
----------------------------|----------------------------|


--6--------2L-2-----2--1----|-----------1L-1-------------|
----------------------------|--4-------------------------|
----------------------------|----------------------------|
----------------------------|----------------------------|
----------------------------|----------------------------|
----------------------------|----------------------------|

Australia.xemloibaihat.com
 

--6--------2L-2-----2--1----|-----------1L-1-------------|
----------------------------|--4-------------------------|
----------------------------|----------------------------|
----------------------------|----------------------------|
----------------------------|----------------------------|
----------------------------|----------------------------|


--6--------2L-2-----2--1----|
----------------------------|
----------------------------|
----------------------------|
----------------------------|
----------------------------|


-----------2--------1L----1-----------2-----1-------|
--4-------------------------------------------------|
----------------------------------------------------|
----------------------------------------------------|
----------------------------------------------------|
----------------------------------------------------|


-----------2--------2L----2-------------------------|-------|
--4-------------------------------------------------|-------|
----------------------------------------------------|-------|
----------------------------------------------------|-------|
----------------------------------------------------|-------|
----------------------------------------------------|-------|


--6--------2L-2-----2--1----|-----------1L-1-------------|
----------------------------|--4-------------------------|
----------------------------|----------------------------|
----------------------------|----------------------------|
----------------------------|----------------------------|
----------------------------|----------------------------|


--6--------2L-2-----2--1----|-----------1L-1-------------|
----------------------------|--4-------------------------|
----------------------------|----------------------------|
----------------------------|----------------------------|
----------------------------|----------------------------|
----------------------------|----------------------------|


--6--------2L-2-----2--1----|
----------------------------|
----------------------------|
----------------------------|
----------------------------|
----------------------------|


-----------2--------1L----1-----------2-----1-------|
--4-------------------------------------------------|
----------------------------------------------------|
----------------------------------------------------|
----------------------------------------------------|
----------------------------------------------------|


-----------2--------2L----2-----------------6-------|
--4-------------------------------------------------|
----------------------------------------------------|
----------------------------------------------------|
----------------------------------------------------|
----------------------------------------------------|


--4-----------------2--1----|----------------------------|
----------------------------|--2--2--2--2--2--2--4--2----|
----------------------------|----------------------------|
----------------------------|----------------------------|
----------------------------|----------------------------|
----------------------------|----------------------------|


--------------------2--1----|--------------------1-------|
----------------------------|--2-----2--2--2-------------|
--1-------------------------|----------------------------|
----------------------------|----------------------------|
----------------------------|----------------------------|
----------------------------|----------------------------|


--2-----------------2--1----|----------------------------|
----------------------------|--2--2--2--2--2--2--4--2----|
----------------------------|----------------------------|
----------------------------|----------------------------|
----------------------------|----------------------------|
----------------------------|----------------------------|


--------------------------------------2-----1-------|
----------------------------------------------------|
--1-------------------------------------------------|
----------------------------------------------------|
----------------------------------------------------|
----------------------------------------------------|


--------------------1-------|--2--------6--4--------6----|
--2-----2--2--2-------------|----------------------------|
----------------------------|----------------------------|
----------------------------|----------------------------|
----------------------------|----------------------------|
----------------------------|----------------------------|


--6--------2L-2-----2--1----|-----------1L-1-------------|
----------------------------|--4-------------------------|
----------------------------|----------------------------|
----------------------------|----------------------------|
----------------------------|----------------------------|
----------------------------|----------------------------|


--6--------2L-2-----2--1----|-----------1L-1-------------|
----------------------------|--4-------------------------|
----------------------------|----------------------------|
----------------------------|----------------------------|
----------------------------|----------------------------|
----------------------------|----------------------------|


--6--------2L-2-----2--1----|
----------------------------|
----------------------------|
----------------------------|
----------------------------|
----------------------------|


-----------2--------1L----1-----------2-----1-------|
--4-------------------------------------------------|
----------------------------------------------------|
----------------------------------------------------|
----------------------------------------------------|
----------------------------------------------------|


-----------2--------2L----2-------------------------|-------|
--4-------------------------------------------------|-------|
----------------------------------------------------|-------|
----------------------------------------------------|-------|
----------------------------------------------------|-------|
----------------------------------------------------|-------|


--6--------2L-2-----2--1----|-----------1L-1-------------|
----------------------------|--4-------------------------|
----------------------------|----------------------------|
----------------------------|----------------------------|
----------------------------|----------------------------|
----------------------------|----------------------------|


--6--------2L-2-----2--1----|-----------1L-1-------------|
----------------------------|--4-------------------------|
----------------------------|----------------------------|
----------------------------|----------------------------|
----------------------------|----------------------------|
----------------------------|----------------------------|


--6--------2L-2-----2--1----|
----------------------------|
----------------------------|
----------------------------|
----------------------------|
----------------------------|


Australia.xemloibaihat.com
 
-----------2--------1L----1-----------2-----1-------|
--4-------------------------------------------------|
----------------------------------------------------|
----------------------------------------------------|
----------------------------------------------------|
----------------------------------------------------|


-----------2--------2L----2-----------------6-------|--4L---|
--4-------------------------------------------------|-------|
----------------------------------------------------|-------|
----------------------------------------------------|-------|
----------------------------------------------------|-------|
----------------------------------------------------|-------|


--4-------------------------------------------------||
----------------------------------------------------||
----------------------------------------------------||
----------------------------------------------------||
----------------------------------------------------||
----------------------------------------------------||


 

Thank you very much for your interest in our article. We hope this information is of great value to you.

See also  Knuckle Puck - Pretense Tabs | Ver. 1 | The site that provides the most complete music chords

Leave a Reply

Your email address will not be published.