Home » Citizen – Death Dance Approximately Bass | Ver. 1 | The site that provides the most complete music chords

Citizen – Death Dance Approximately Bass | Ver. 1 | The site that provides the most complete music chords

Are you looking for a topic Citizen – Death Dance Approximately Bass | Ver. 1
right? If so, then you can watch it right here.

Table of Contents

Citizen – Death Dance Approximately Bass | Ver. 1
| You can find many other song chords here

Australia.xemloibaihat.com | Citizen – Death Dance Approximately Bass | Ver. 1


[Intro]
 
G|----------------------------------------------------------------|
D|------------------------------------------------9-9-9-9-9-9-9-9-|
A|----------------------------------------------------------------|
E|7--7--7-7--7--7-7--7--7-7--7--7-7--7--7-7--7--7-----------------|
 
G|----------------------------------------------------------------|
D|----------------------------------------------------------------|
A|--------------8-7--7--7-7--7--4-5--5--5-5--5--5-4--4--4-4--4----|
E|7--7--7-7--7--------------------------------------------------5-|
 
G|----------------------------------------------------------------|
D|----------------------------------------------------------------|
A|--------------8-7--7--7-7--7--4-5--5--5-5--5--7-4--4--4-4-4-----|
E|7--7--7-7--7------------------------------------------------5-5-|
 
G|----------------------------------------------------------------|
D|----------------------------------------------------------------|
A|2-2-2-2-2-2-2-2-------------------------------------------------|
E|----------------2-2-2-2-2-2-2-2-3-3-3-3-3-3-3-3-0-0-0-0-0-0-0-0-| x2
 
G|----------------------------------------------------------------|
D|----------------------------------------------------------------|
A|----------------------------------------------------------------|
E|7--7--7-7--7--7-7--7--7-7--7--7-7--7--7-7--7--7-----------------|
 
 
[Verse 1]
 
G|----------------------------------------------------------------|
D|------------------------------------------------------------7---|
A|----------------------------7---9---9---9-9-9-9-------9---9-----|
E|7---7---7-7-7-7-------7---7-------------------------------------|
 
G|----------------------------------------------------------------|
D|5---5---5-5-5-5-------5---5-------------------------------------|
A|----------------------------5---9---9---9-9-9-9-------9---9-----|
E|------------------------------------------------------------5---|
 
G|----------------------------------------------------------------|
D|------------------------------------------------------------7---|
A|----------------------------7---9---9---9-9-9-9-------9---9-----|
E|7---7---7-7-7-7-------7---7-------------------------------------|
 
G|----------------------------------------------------------------|
D|5---5---5-5-5-5-------5---5-------------------------------------|
A|----------------------------5---9---9---9-9-9-9-------9---9-----|
E|------------------------------------------------------------5---|
 
G|----------------------------------------------------------------|
D|----------------------------------------------------------------|
A|--------------------------------4-4-4-4-4-4-4-4-9-9-9-9-9-9-9-9-|
E|3-3-3-3-3-3-3-3-3-3-3-3-3-3-3-3---------------------------------|
 
 
[Chorus]
 
G|----------------------------------------------------------------|
D|----------------------------------------------------------------|
A|2-2-2-2-2-2-2-2-------------------------------------------------|
E|----------------2-2-2-2-2-2-2-2-3-3-3-3-3-3-3-3-0-0-0-0-0-0-0-0-| x2
 
 
[Verse 2]
 
G|----------------------------------------------------------------|
D|------------------------------------------------------------7---|
A|----------------------------7---9---9---9-9-9-9-------9---9-----|
E|7---7---7-7-7-7-------7---7-------------------------------------|
 
G|----------------------------------------------------------------|
D|5---5---5-5-5-5-------5---5-------------------------------------|
A|----------------------------5---9---9---9-9-9-9-------9---9-----|
E|------------------------------------------------------------5---|
 
G|----------------------------------------------------------------|
D|------------------------------------------------------------7---|
A|----------------------------7---9---9---9-9-9-9-------9---9-----|
E|7---7---7-7-7-7-------7---7-------------------------------------|
 
G|----------------------------------------------------------------|
D|5---5---5-5-5-5-------5---5-------------------------------------|
A|----------------------------5---9---9---9-9-9-9-------9---9-----|
E|------------------------------------------------------------5---|
 
G|----------------------------------------------------------------|
D|----------------------------------------------------------------|
A|--------------------------------4-4-4-4-4-4-4-4-9-9-9-9-9-9-9-9-|
E|3-3-3-3-3-3-3-3-3-3-3-3-3-3-3-3---------------------------------|
 
 
[Chorus]
 
G|----------------------------------------------------------------|
D|----------------------------------------------------------------|
A|2-2-2-2-2-2-2-2-------------------------------------------------|
E|----------------2-2-2-2-2-2-2-2-3-3-3-3-3-3-3-3-0-0-0-0-0-0-0-0-| x4
 
G|----------------------------------------------------------------|
D|------------------------------------------------9-9-9-9-9-9-9-9-|
A|----------------------------------------------------------------|
E|7--7--7-7--7--7-7--7--7-7--7--7-7-7-7-7-7-7-7-7-----------------|
 
 
[Bridge]
 
G|----------------------------------------------------------------|
D|----------------------------------------------------------------|
A|--------5---9---7---5---5-7-9---------------5---4---2-----------|
E|7-7-5-7-------------------------2-2-0-2-5-5-------------5-5-5---| x3
 
G|----------------------------------------------------------------|
D|----------------------------------------------------------------|
A|--------5---9---7---5---5-7-9---------------5---4---2---9-9-9---|
E|7-7-5-7-------------------------2-2-0-2-5-5---------------------|
 
G|----------------------------------------------------------------|
D|----------------------------------------------------------------|
A|--------------8-7--7--7-7--7--4-5--5--5-5--5--5-4--4--4-4--4----|
E|7--7--7-7--7--------------------------------------------------5-|
 
G|----------------------------------------------------------------|
D|----------------------------------------------------------------|
A|--------------8-7--7--7-7--7--4-5--5--5-5--5--7-4--4--4-4-4-----|
E|7--7--7-7--7------------------------------------------------5-5-|
 
 
[Chorus]
 
G|----------------------------------------------------------------|
D|----------------------------------------------------------------|
A|2-2-2-2-2-2-2-2-------------------------------------------------|
E|----------------2-2-2-2-2-2-2-2-3-3-3-3-3-3-3-3-0-0-0-0-0-0-0-0-| x4
 
[Outro]
 
G|----------------------------------------------------------------|
D|----------------------------------------------------------------|
A|----------------------------------------------------------------|
E|7--7--7-7--7--7-7--7--7-7---------------------------------------|
            

See also  Safe & Sound feat. The Civil Wars (The Hunger Games: Songs From District 12 And Beyond) | you will be found chords | Website providing Australia's #1 song chords

You can find more useful information here: See more

Citizen – Death Dance Approximately Bass | Ver. 1
And searches related to this topic

#Citizen #Death #Dance #Approximately #Bass #Ver

Citizen – Death Dance Approximately Bass | Ver. 1

>>See more useful information provided by us here: See more here.

Review the information related to the topic Citizen – Death Dance Approximately Bass | Ver. 1
again

Australia.xemloibaihat.com | Citizen – Death Dance Approximately Bass | Ver. 1


[Intro]
 
G|----------------------------------------------------------------|
D|------------------------------------------------9-9-9-9-9-9-9-9-|
A|----------------------------------------------------------------|
E|7--7--7-7--7--7-7--7--7-7--7--7-7--7--7-7--7--7-----------------|
 
G|----------------------------------------------------------------|
D|----------------------------------------------------------------|
A|--------------8-7--7--7-7--7--4-5--5--5-5--5--5-4--4--4-4--4----|
E|7--7--7-7--7--------------------------------------------------5-|
 
G|----------------------------------------------------------------|
D|----------------------------------------------------------------|
A|--------------8-7--7--7-7--7--4-5--5--5-5--5--7-4--4--4-4-4-----|
E|7--7--7-7--7------------------------------------------------5-5-|
 
G|----------------------------------------------------------------|
D|----------------------------------------------------------------|
A|2-2-2-2-2-2-2-2-------------------------------------------------|
E|----------------2-2-2-2-2-2-2-2-3-3-3-3-3-3-3-3-0-0-0-0-0-0-0-0-| x2
 
G|----------------------------------------------------------------|
D|----------------------------------------------------------------|
A|----------------------------------------------------------------|
E|7--7--7-7--7--7-7--7--7-7--7--7-7--7--7-7--7--7-----------------|
 
 
[Verse 1]
 
G|----------------------------------------------------------------|
D|------------------------------------------------------------7---|
A|----------------------------7---9---9---9-9-9-9-------9---9-----|
E|7---7---7-7-7-7-------7---7-------------------------------------|
 
G|----------------------------------------------------------------|
D|5---5---5-5-5-5-------5---5-------------------------------------|
A|----------------------------5---9---9---9-9-9-9-------9---9-----|
E|------------------------------------------------------------5---|
 
G|----------------------------------------------------------------|
D|------------------------------------------------------------7---|
A|----------------------------7---9---9---9-9-9-9-------9---9-----|
E|7---7---7-7-7-7-------7---7-------------------------------------|
 
G|----------------------------------------------------------------|
D|5---5---5-5-5-5-------5---5-------------------------------------|
A|----------------------------5---9---9---9-9-9-9-------9---9-----|
E|------------------------------------------------------------5---|
 
G|----------------------------------------------------------------|
D|----------------------------------------------------------------|
A|--------------------------------4-4-4-4-4-4-4-4-9-9-9-9-9-9-9-9-|
E|3-3-3-3-3-3-3-3-3-3-3-3-3-3-3-3---------------------------------|
 
 
[Chorus]
 
G|----------------------------------------------------------------|
D|----------------------------------------------------------------|
A|2-2-2-2-2-2-2-2-------------------------------------------------|
E|----------------2-2-2-2-2-2-2-2-3-3-3-3-3-3-3-3-0-0-0-0-0-0-0-0-| x2
 
 
[Verse 2]
 
G|----------------------------------------------------------------|
D|------------------------------------------------------------7---|
A|----------------------------7---9---9---9-9-9-9-------9---9-----|
E|7---7---7-7-7-7-------7---7-------------------------------------|
 
G|----------------------------------------------------------------|
D|5---5---5-5-5-5-------5---5-------------------------------------|
A|----------------------------5---9---9---9-9-9-9-------9---9-----|
E|------------------------------------------------------------5---|
 
G|----------------------------------------------------------------|
D|------------------------------------------------------------7---|
A|----------------------------7---9---9---9-9-9-9-------9---9-----|
E|7---7---7-7-7-7-------7---7-------------------------------------|
 
G|----------------------------------------------------------------|
D|5---5---5-5-5-5-------5---5-------------------------------------|
A|----------------------------5---9---9---9-9-9-9-------9---9-----|
E|------------------------------------------------------------5---|
 
G|----------------------------------------------------------------|
D|----------------------------------------------------------------|
A|--------------------------------4-4-4-4-4-4-4-4-9-9-9-9-9-9-9-9-|
E|3-3-3-3-3-3-3-3-3-3-3-3-3-3-3-3---------------------------------|
 
 
[Chorus]
 
G|----------------------------------------------------------------|
D|----------------------------------------------------------------|
A|2-2-2-2-2-2-2-2-------------------------------------------------|
E|----------------2-2-2-2-2-2-2-2-3-3-3-3-3-3-3-3-0-0-0-0-0-0-0-0-| x4
 
G|----------------------------------------------------------------|
D|------------------------------------------------9-9-9-9-9-9-9-9-|
A|----------------------------------------------------------------|
E|7--7--7-7--7--7-7--7--7-7--7--7-7-7-7-7-7-7-7-7-----------------|
 
 
[Bridge]
 
G|----------------------------------------------------------------|
D|----------------------------------------------------------------|
A|--------5---9---7---5---5-7-9---------------5---4---2-----------|
E|7-7-5-7-------------------------2-2-0-2-5-5-------------5-5-5---| x3
 
G|----------------------------------------------------------------|
D|----------------------------------------------------------------|
A|--------5---9---7---5---5-7-9---------------5---4---2---9-9-9---|
E|7-7-5-7-------------------------2-2-0-2-5-5---------------------|
 
G|----------------------------------------------------------------|
D|----------------------------------------------------------------|
A|--------------8-7--7--7-7--7--4-5--5--5-5--5--5-4--4--4-4--4----|
E|7--7--7-7--7--------------------------------------------------5-|
 
G|----------------------------------------------------------------|
D|----------------------------------------------------------------|
A|--------------8-7--7--7-7--7--4-5--5--5-5--5--7-4--4--4-4-4-----|
E|7--7--7-7--7------------------------------------------------5-5-|
 
 
[Chorus]
 
G|----------------------------------------------------------------|
D|----------------------------------------------------------------|
A|2-2-2-2-2-2-2-2-------------------------------------------------|
E|----------------2-2-2-2-2-2-2-2-3-3-3-3-3-3-3-3-0-0-0-0-0-0-0-0-| x4
 
[Outro]
 
G|----------------------------------------------------------------|
D|----------------------------------------------------------------|
A|----------------------------------------------------------------|
E|7--7--7-7--7--7-7--7--7-7---------------------------------------|
            

See also  Meghan Trainor - Old Friends Chords | Ver. 1 | The site that provides the most complete music chords

Thank you very much for your interest in our article. We hope this information is of great value to you.

Leave a Reply

Your email address will not be published.