Home » Conan Gray – Heather Tabs | Ver. 1 | The site that provides the most complete music chords

Conan Gray – Heather Tabs | Ver. 1 | The site that provides the most complete music chords

by Andy Frank

Are you looking for a topic Conan Gray – Heather Tabs | Ver. 1
right? If so, then you can watch it right here.

Table of Contents

Conan Gray – Heather Tabs | Ver. 1
| You can find many other song chords here

Australia.xemloibaihat.com | Conan Gray – Heather Tabs | Ver. 1


[Intro]
 
e|---------------------------------------------------------------------------|
B|----3----1------------1----3---1------------3---1------------1----3----1---|
G|----0-------------0-------------------------0-----------0------------------|
D|--------------2---------------------2---------------2--------------------2-|
A|----3----------------------3----------------3---------------------3--------|
E|---------------------------------------------------------------------------|
 
e|-----------------------------------------0--1---3--------------------------|
B|----3---0-----------0-----3----0-------------------------3----1----0-------|
G|----0-----------0----------------------------------------------------------|
D|-------------2----------------------2--------------------------------------|
A|---------------------------------------------------------------------------|
E|----0---------------------0--------------0-----------0-------------0-------|
 
 
[Verse 1]
 
e|----------------------------------------------------------------------------|
B|----3---------------------3-----1------------3-----------------3-----1------|
G|--------0-------------0--------------0------------0---------0-----------0---|
D|------------------2--------------------------------------2------------------|
A|----0---------0------------------------------0--------0---------------------|
E|----------------------------------------------------------------------------|
 
e|---0------------------------0------0---1---3--------------------------------|
B|---1----1-----1----3---1-----------3---------------3---1---0------3---------|
G|---2-------------------------------1------------------------------0---------|
D|---3-------3-------3---------------3-----------3----------------------------|
A|------------------------------------------------------------------3---------|
E|----------------------------------------------------------------------------|
 
 
[Chorus]
 
e|-------------------0--------------------------------------------------------|
B|------------3---------------------1----0------------------------------------|
G|--------0--------------0----------0-----------------------------------------|
D|-----2--------------2-----2----------------2----2--------0------------------|
A|----------------------------------3-------------3---3-----------------------|
E|----------------------------------------------------------------------------|
 
e|----------------------------------------------------------------------------|
B|-----------------------------------------1-----0----------------------------|
G|----------------------------------------------------------------------------|
D|---0--------0-------2----------2-------------------2-----2--------0---------|
A|---------------------------------------------------------3----3-------------|
E|---0-----0-----0----------0--------0-----0----------------------------------|
 
 
[Verse 2]
 
e|----------------------------------------------------------------------------|
B|----------------------------------------1---0-------------------------------|
G|----------------------------------------------------------------------------|
D|---0-------0--------2--------2-----------------2---2----------0----0--------|
A|-------------------------------------------------------------------0--------|
E|---0----0-----0---------0---------0-----0----------0-----0------------------|
 
e|-----------------------------------------------------------0-------------0-|
B|-------------------------------1---0-----------------------1----------1----|
G|-------------------------------0---------------------------2-------2-------|
D|------0------2-------2-----------------2---2---------0-----3---3-----------|
A|---0-----0-------0-------0-----0-----------0----0--------------------------|
E|---------------------------------------------------------------------------|
 
 
[Chorus]
 
e|-------------0-------------------------------------------------------------|
B|--1---3-----------3------1-------------------------------------------------|
G|------------------1------0-------------------------------------------------|
D|-------------3----3------2-------2----------2---------0------0---2---------|
A|-------------------------3---3--------3-----------3----------3-------------|
E|---------------------------------------------------------------------------|
 
e|---------------------------------------------------------------------------|
B|--------------------------------0------------------------------------------|
G|----------------0--------0-------------------------------------------------|
D|-------2-----------------2--------------2----------2--------0-----0--------|
A|---3--------3--------3-----------------------------------------------------|
E|--------------------------------0----0------0-----------0---------0--------|
 
 
[Bridge]
 
e|--------------------------------------------------------------------1------|
B|-----------------------------------1--------------------------------0------|
G|--------------------0---------2----0--------------------------------2------|
D|----2-------2----------------------2-------2---------2----0----0----0------|
A|-----------------------------------0----0------0-----0---------------------|
E|---------0-----0---------0-------------------------------------------------|
 
e|---------------------------------------------------------0-----------------|
B|----1----------------------------------1------------1----------------------|
G|----0---------------------0------------2--------2-----------------2--------|
D|----2-------2---------2----------2-----3----3----------------3-------------|
A|----0----0------0-----0----------------------------------------------------|
E|---------------------------------------------------------------------------|
 
 
[Chorus]
 
e|----0----1-----------------0-----------------------------------------------|
B|-----------------------3---------------3---1----------1----3----1----------|
G|------------------0--------------------0-----------0-----------------------|
D|----3---------3---------------------------------2--------------------2-----|
A|---------------------------------------3-------------------3---------------|
E|---------------------------------------------------------------------------|
 
e|---------------------------------------------------------------------------|
B|--3----1----------1-----3---1------------3-----0----------0-----3------0---|
G|--0-----------0--------------------------0------------0--------------------|
D|-----------2---------------------2-----------------2----------------------2|
A|------------------------3--------------------------------------------------|
E|--3--------------------------------------0----------------------0----------|
 
[Outro]
 
e|-----------------------------0---1--3--------------------------------------|
B|-------0-----3---0---------------------------3--1---0-----3----------------|
G|---0----------------------------------------------------------0------------|
D|----------------------2----------------------------------------------------|
A|----------------------------------------------------------0--------0-------|
E|-------------0---------------0------------0---------0----------------------|
 
e|--------------------------------------------------------------0------------|
B|------------3----1-----------3------------------3---1---------1--1-----1---|
G|-------0--------------0----------0---------0------------0-----2------------|
D|---2------------------------------------2---------------------3-----3------|
A|-----------------------------0------0--------------------------------------|
E|---------------------------------------------------------------------------|
 
e|--------------0---------0----1---3-------------------------------------0---|
B|----3---1---------------3------------------3---1--0--------3--------3------|
G|------------------------1----------------------------------0-----0---------|
D|----3-------------------3-------------3-----------------------2------------|
A|-----------------------------------------------------------3---------------|
E|---------------------------------------------------------------------------|
 
e|---------------------------------------------------------------------------|
B|------------------1----0---------------------------------------------------|
G|------0-----------0--------------------------------------------------------|
D|----2---2-------------------2----2---------0-----------0--------2------2---|
A|------------------3--------------3----3------------------------------------|
E|-------------------------------------------0--------0-----0--------0------0|
 
e|---------------------------------------------------------------------------|
B|--1------0-----------------------------------------------------------------|
G|---------------------------------------------------------------------------|
D|-------------2---2---------0---------0-----0--------2----------2-----------|
A|-------------------------------------0--0------0------------0------0-------|
E|--0--------------0----0----------------------------------------------------|
 
e|-----------------------------------0------------------0--------------------|
B|---1----0--------------------------1--------------1--------1---3-----------|
G|---0-------------------------------2---------2-----------------------------|
D|-------------2----2---------0------3----3----------------------------------|
A|---0--------------0----0---------------------------------------------------|
E|---------------------------------------------------------------------------|
 
e|-------0-------------------------------------------------------------------|
B|------------3----1---------------------------------------------------------|
G|------------1----0---------------------------------------------------------|
D|-------3----3----2-------2--------2-------0-------0--2---------2-----------|
A|-----------------3---3--------3-------3-----------3--------3--------3------|
E|---------------------------------------------------------------------------|
 
e|---------------------------------------------------------------------------|
B|-----------------------0---------------------------------------------------|
G|----0---------0------------------------------------------------------------|
D|--------------2----------------2------2--------0------0--2-----------------|
A|---------3-----------------------------------------------------------------|
E|-----------------------0----0-----0---------0---------0--------------------|
 
e|---------------------------------------------------------------------------|
B|---------------------------------1-----------------------------------------|
G|-------------0---------2---------0-----------------------------------------|
D|------2--------------------------2--------2---------2----0---------0-------|
A|---------------------------------0----0-------0-----0----------------------|
E|---0-----0---------0-------------------------------------------------------|
 
e|---------------------------------------------------------0-----------------|
B|--1-------------------------------------1-----------1----------------------|
G|--0-----------------------0-------------2------2-------------------2-------|
D|--2--------2---------2----------2-------3--3-----------------3-------------|
A|--0----0--------0----0-----------------------------------------------------|
E|---------------------------------------------------------------------------|
 
e|--1---1--0----1---0-------3----------------3-------------------------------|
B|--------------------------1------------1------------1----------------------|
G|--------------------------0--------0-----------0---------------------------|
D|--3-----------------------2------------------------------------------------|
A|--------------------------3---3--------------------------------------------|
E|---------------------------------------------------------------------------|
 
e|--1---1--0----1---0-------3----------------3--------5-------7--------------|
B|--------------------------1------------1------------5-------7--------------|
G|--------------------------0--------0---------------------------------------|
D|--3-----------------------2------------------------------------------------|
A|--------------------------3---3--------------------------------------------|
E|---------------------------------------------------------------------------|
 
e|----0---------------------0---------------------0----------------0---------|
B|----0-------------0----------------0------------0------------0-------3--0--|
G|----0---------0---------------0-----------------0--------0-----------2--0--|
D|----2-------------------------------------------2--------------------------|
A|----2-------------------------------------------2--------------------------|
E|----0-----0-------------------------------------0-----0--------------------|
 
e|-----0----------------0---------------------0-------------0----------------|
B|-----1-----------1--------------1-----------1---------1-------------1------|
G|-----0--------0------------0----------------0------0-----------0-----------|
D|-----2--------------------------------------2------------------------------|
A|-----0----0---------------------------------0---0--------------------------|
E|---------------------------------------------------------------------------|
 
e|----0--------------------0---------------0---1-------------------0---------|
B|----1---------------1---------1-----------------------------3--------------|
G|----2---------2---------------------2------------------0-------------------|
D|----3----3-------------------------------3---------3-----------------------|
A|---------------------------------------------------------------------------|
E|---------------------------------------------------------------------------|
 
e|---------------------------------------------------------------------------|
B|-----1---------------------------------------------------------------------|
G|-----0------------------------------------------------0-----0--------------|
D|-----2----2----------2---2----0--------2-------2---------------------------|
A|-----3---------3-----------------------3---3-------3-----------------------|
E|---------------------------------------------------------------------------|
 
e|---------------------------------------------------------------------------|
B|-----0---------------------------------------------------------------------|
G|-----0-----------------------------------------------0----2----------------|
D|-----2----2------2-----2---0---------2------2------------------------------|
A|---------------------------------------------------------------------------|
E|-----0-------0-----------------------0--0--------0-------------------------|
 
e|----------------------------------------------------0---1--3---------------|
B|---1-------------------------------------------------------------0---------|
G|---0------------------0----------2-------------------------------0---------|
D|-------2------2---2--------2-----3--2--2--2----0----3------------2---------|
A|---0------0------------------------------------------------------3---------|
E|---------------------------------------------------------------------------|
            

READ  Home Gabrielle Aplin Guitar Cover TAB TAKE 2 | home gabrielle aplin chords | Website providing Australia's #1 song chords

You can find more useful information here: Australia.xemloibaihat.com/chord

Conan Gray – Heather Tabs | Ver. 1
And searches related to this topic

#Conan #Gray #Heather #Tabs #Ver

Conan Gray – Heather Tabs | Ver. 1

>>See more useful information provided by us here: View here.

Review the information related to the topic Conan Gray – Heather Tabs | Ver. 1
again

Australia.xemloibaihat.com | Conan Gray – Heather Tabs | Ver. 1


[Intro]
 
e|---------------------------------------------------------------------------|
B|----3----1------------1----3---1------------3---1------------1----3----1---|
G|----0-------------0-------------------------0-----------0------------------|
D|--------------2---------------------2---------------2--------------------2-|
A|----3----------------------3----------------3---------------------3--------|
E|---------------------------------------------------------------------------|
 
e|-----------------------------------------0--1---3--------------------------|
B|----3---0-----------0-----3----0-------------------------3----1----0-------|
G|----0-----------0----------------------------------------------------------|
D|-------------2----------------------2--------------------------------------|
A|---------------------------------------------------------------------------|
E|----0---------------------0--------------0-----------0-------------0-------|
 
 
[Verse 1]
 
e|----------------------------------------------------------------------------|
B|----3---------------------3-----1------------3-----------------3-----1------|
G|--------0-------------0--------------0------------0---------0-----------0---|
D|------------------2--------------------------------------2------------------|
A|----0---------0------------------------------0--------0---------------------|
E|----------------------------------------------------------------------------|
 
e|---0------------------------0------0---1---3--------------------------------|
B|---1----1-----1----3---1-----------3---------------3---1---0------3---------|
G|---2-------------------------------1------------------------------0---------|
D|---3-------3-------3---------------3-----------3----------------------------|
A|------------------------------------------------------------------3---------|
E|----------------------------------------------------------------------------|
 
 
[Chorus]
 
e|-------------------0--------------------------------------------------------|
B|------------3---------------------1----0------------------------------------|
G|--------0--------------0----------0-----------------------------------------|
D|-----2--------------2-----2----------------2----2--------0------------------|
A|----------------------------------3-------------3---3-----------------------|
E|----------------------------------------------------------------------------|
 
e|----------------------------------------------------------------------------|
B|-----------------------------------------1-----0----------------------------|
G|----------------------------------------------------------------------------|
D|---0--------0-------2----------2-------------------2-----2--------0---------|
A|---------------------------------------------------------3----3-------------|
E|---0-----0-----0----------0--------0-----0----------------------------------|
 
 
[Verse 2]
 
e|----------------------------------------------------------------------------|
B|----------------------------------------1---0-------------------------------|
G|----------------------------------------------------------------------------|
D|---0-------0--------2--------2-----------------2---2----------0----0--------|
A|-------------------------------------------------------------------0--------|
E|---0----0-----0---------0---------0-----0----------0-----0------------------|
 
e|-----------------------------------------------------------0-------------0-|
B|-------------------------------1---0-----------------------1----------1----|
G|-------------------------------0---------------------------2-------2-------|
D|------0------2-------2-----------------2---2---------0-----3---3-----------|
A|---0-----0-------0-------0-----0-----------0----0--------------------------|
E|---------------------------------------------------------------------------|
 
 
[Chorus]
 
e|-------------0-------------------------------------------------------------|
B|--1---3-----------3------1-------------------------------------------------|
G|------------------1------0-------------------------------------------------|
D|-------------3----3------2-------2----------2---------0------0---2---------|
A|-------------------------3---3--------3-----------3----------3-------------|
E|---------------------------------------------------------------------------|
 
e|---------------------------------------------------------------------------|
B|--------------------------------0------------------------------------------|
G|----------------0--------0-------------------------------------------------|
D|-------2-----------------2--------------2----------2--------0-----0--------|
A|---3--------3--------3-----------------------------------------------------|
E|--------------------------------0----0------0-----------0---------0--------|
 
 
[Bridge]
 
e|--------------------------------------------------------------------1------|
B|-----------------------------------1--------------------------------0------|
G|--------------------0---------2----0--------------------------------2------|
D|----2-------2----------------------2-------2---------2----0----0----0------|
A|-----------------------------------0----0------0-----0---------------------|
E|---------0-----0---------0-------------------------------------------------|
 
e|---------------------------------------------------------0-----------------|
B|----1----------------------------------1------------1----------------------|
G|----0---------------------0------------2--------2-----------------2--------|
D|----2-------2---------2----------2-----3----3----------------3-------------|
A|----0----0------0-----0----------------------------------------------------|
E|---------------------------------------------------------------------------|
 
 
[Chorus]
 
e|----0----1-----------------0-----------------------------------------------|
B|-----------------------3---------------3---1----------1----3----1----------|
G|------------------0--------------------0-----------0-----------------------|
D|----3---------3---------------------------------2--------------------2-----|
A|---------------------------------------3-------------------3---------------|
E|---------------------------------------------------------------------------|
 
e|---------------------------------------------------------------------------|
B|--3----1----------1-----3---1------------3-----0----------0-----3------0---|
G|--0-----------0--------------------------0------------0--------------------|
D|-----------2---------------------2-----------------2----------------------2|
A|------------------------3--------------------------------------------------|
E|--3--------------------------------------0----------------------0----------|
 
[Outro]
 
e|-----------------------------0---1--3--------------------------------------|
B|-------0-----3---0---------------------------3--1---0-----3----------------|
G|---0----------------------------------------------------------0------------|
D|----------------------2----------------------------------------------------|
A|----------------------------------------------------------0--------0-------|
E|-------------0---------------0------------0---------0----------------------|
 
e|--------------------------------------------------------------0------------|
B|------------3----1-----------3------------------3---1---------1--1-----1---|
G|-------0--------------0----------0---------0------------0-----2------------|
D|---2------------------------------------2---------------------3-----3------|
A|-----------------------------0------0--------------------------------------|
E|---------------------------------------------------------------------------|
 
e|--------------0---------0----1---3-------------------------------------0---|
B|----3---1---------------3------------------3---1--0--------3--------3------|
G|------------------------1----------------------------------0-----0---------|
D|----3-------------------3-------------3-----------------------2------------|
A|-----------------------------------------------------------3---------------|
E|---------------------------------------------------------------------------|
 
e|---------------------------------------------------------------------------|
B|------------------1----0---------------------------------------------------|
G|------0-----------0--------------------------------------------------------|
D|----2---2-------------------2----2---------0-----------0--------2------2---|
A|------------------3--------------3----3------------------------------------|
E|-------------------------------------------0--------0-----0--------0------0|
 
e|---------------------------------------------------------------------------|
B|--1------0-----------------------------------------------------------------|
G|---------------------------------------------------------------------------|
D|-------------2---2---------0---------0-----0--------2----------2-----------|
A|-------------------------------------0--0------0------------0------0-------|
E|--0--------------0----0----------------------------------------------------|
 
e|-----------------------------------0------------------0--------------------|
B|---1----0--------------------------1--------------1--------1---3-----------|
G|---0-------------------------------2---------2-----------------------------|
D|-------------2----2---------0------3----3----------------------------------|
A|---0--------------0----0---------------------------------------------------|
E|---------------------------------------------------------------------------|
 
e|-------0-------------------------------------------------------------------|
B|------------3----1---------------------------------------------------------|
G|------------1----0---------------------------------------------------------|
D|-------3----3----2-------2--------2-------0-------0--2---------2-----------|
A|-----------------3---3--------3-------3-----------3--------3--------3------|
E|---------------------------------------------------------------------------|
 
e|---------------------------------------------------------------------------|
B|-----------------------0---------------------------------------------------|
G|----0---------0------------------------------------------------------------|
D|--------------2----------------2------2--------0------0--2-----------------|
A|---------3-----------------------------------------------------------------|
E|-----------------------0----0-----0---------0---------0--------------------|
 
e|---------------------------------------------------------------------------|
B|---------------------------------1-----------------------------------------|
G|-------------0---------2---------0-----------------------------------------|
D|------2--------------------------2--------2---------2----0---------0-------|
A|---------------------------------0----0-------0-----0----------------------|
E|---0-----0---------0-------------------------------------------------------|
 
e|---------------------------------------------------------0-----------------|
B|--1-------------------------------------1-----------1----------------------|
G|--0-----------------------0-------------2------2-------------------2-------|
D|--2--------2---------2----------2-------3--3-----------------3-------------|
A|--0----0--------0----0-----------------------------------------------------|
E|---------------------------------------------------------------------------|
 
e|--1---1--0----1---0-------3----------------3-------------------------------|
B|--------------------------1------------1------------1----------------------|
G|--------------------------0--------0-----------0---------------------------|
D|--3-----------------------2------------------------------------------------|
A|--------------------------3---3--------------------------------------------|
E|---------------------------------------------------------------------------|
 
e|--1---1--0----1---0-------3----------------3--------5-------7--------------|
B|--------------------------1------------1------------5-------7--------------|
G|--------------------------0--------0---------------------------------------|
D|--3-----------------------2------------------------------------------------|
A|--------------------------3---3--------------------------------------------|
E|---------------------------------------------------------------------------|
 
e|----0---------------------0---------------------0----------------0---------|
B|----0-------------0----------------0------------0------------0-------3--0--|
G|----0---------0---------------0-----------------0--------0-----------2--0--|
D|----2-------------------------------------------2--------------------------|
A|----2-------------------------------------------2--------------------------|
E|----0-----0-------------------------------------0-----0--------------------|
 
e|-----0----------------0---------------------0-------------0----------------|
B|-----1-----------1--------------1-----------1---------1-------------1------|
G|-----0--------0------------0----------------0------0-----------0-----------|
D|-----2--------------------------------------2------------------------------|
A|-----0----0---------------------------------0---0--------------------------|
E|---------------------------------------------------------------------------|
 
e|----0--------------------0---------------0---1-------------------0---------|
B|----1---------------1---------1-----------------------------3--------------|
G|----2---------2---------------------2------------------0-------------------|
D|----3----3-------------------------------3---------3-----------------------|
A|---------------------------------------------------------------------------|
E|---------------------------------------------------------------------------|
 
e|---------------------------------------------------------------------------|
B|-----1---------------------------------------------------------------------|
G|-----0------------------------------------------------0-----0--------------|
D|-----2----2----------2---2----0--------2-------2---------------------------|
A|-----3---------3-----------------------3---3-------3-----------------------|
E|---------------------------------------------------------------------------|
 
e|---------------------------------------------------------------------------|
B|-----0---------------------------------------------------------------------|
G|-----0-----------------------------------------------0----2----------------|
D|-----2----2------2-----2---0---------2------2------------------------------|
A|---------------------------------------------------------------------------|
E|-----0-------0-----------------------0--0--------0-------------------------|
 
e|----------------------------------------------------0---1--3---------------|
B|---1-------------------------------------------------------------0---------|
G|---0------------------0----------2-------------------------------0---------|
D|-------2------2---2--------2-----3--2--2--2----0----3------------2---------|
A|---0------0------------------------------------------------------3---------|
E|---------------------------------------------------------------------------|
            

READ  TAYLOR SWIFT – Love Story (Taylor’s Version) Chords and Tabs for Guitar and Piano | The site that provides the most complete music chords

Thank you very much for your interest in our article. We hope this information is of great value to you.

You may also like

Leave a Comment