Home » Death From Above 1979 – One One Bass | Ver. 1 | The site that provides the most complete music chords

Death From Above 1979 – One One Bass | Ver. 1 | The site that provides the most complete music chords

by Andy Frank

Are you looking for a topic Death From Above 1979 – One One Bass | Ver. 1
right? If so, then you can watch it right here.

Table of Contents

Death From Above 1979 – One One Bass | Ver. 1
| You can find many other song chords here

Australia.xemloibaihat.com | Death From Above 1979 – One One Bass | Ver. 1


0:06
Intro
G|-------------------------------------------------------------------|
D|--8-------------------8-------------------8------------------------|
A|----10-10-10-10-10-10---10-10-10-10-10-10---10-10-10-10-10-10------|
E|-------------------------------------------------------------------|
 
G|-----------------|
D|---8-------------|   x6
A|-----10-10-6-----|
E|-------------8-8-|
 
0:45
G|-------------------10-10-8-8-7-7-7------------------------------------|
D|---10-10-8-8-7-7-7-----------------8-------------------8--------------|
A|-------------------------------------10-10-10-10-10-10---10-10-6------|
E|-----------------------------------------------------------------8-8--|
 
0:54
G|-------------------10-10-8-8-7-7-7---12-12-12-12-12-12-12-12-12-12-12-| (rapid strum on 12)
D|---10-10-8-8-7-7-7----------------------------------------------------|
A|----------------------------------------------------------------------|
E|----------------------------------------------------------------------|
 
1:01 - I walk in, the kid starts dancing
G|--------------------------------------------------------------------|
D|---8-------------------8-------------------8------------------------|
A|-----10-10-10-10-10-10---10-10-10-10-10-10---10-10-10-10-10-10------|
E|--------------------------------------------------------------------|
 
G|-----------------|
D|---8-------------|   x4
A|-----10-10-6-----|
E|-------------8-8-|
 
1:26
G|-------------------10-10-8-8-7-7-7------------------------------------|
D|---10-10-8-8-7-7-7-----------------8-------------------8--------------|  x2
A|-------------------------------------10-10-10-10-10-10---10-10-6------|
E|-----------------------------------------------------------------8-8--|
 
G|-------------------10-10-8-8-7-7-7----|
D|---10-10-8-8-7-7-7--------------------|
A|--------------------------------------|
E|--------------------------------------|
 
1:42
G|-----------------------------------------------------------------------|
D| 10-10-10-10-8-8-8-8------------------8-8-8-8-7-7-7-7------------------|   x6
A|---------------------8-8-8-8-8-8-8-8------------------6-6-6-6-6-6-6-6--|
E|-----------------------------------------------------------------------|
 
G|--20-20-20-20-20-20-20-20-19-19-19-19-19-19-19-19-------------------------|
D|--------------------------------------------------19-19-19-19-19-19-19-19-|
A|--------------------------------------------------------------------------|
E|--------------------------------------------------------------------------|
                                                                                x2 (unsure how many times
G|-19-19-19-19-19-19-19-19-17-17-17-17-17-17-17-17-------------------------|         he's strumming each
D|-------------------------------------------------17-17-17-17-17-17-17-17-|          note)
A|-------------------------------------------------------------------------|
E|-------------------------------------------------------------------------|
 
G|--------------------------------------------------------------------|
D|---8-------------------8-------------------8------------------------|
A|-----10-10-10-10-10-10---10-10-10-10-10-10---10-10-10-10-10-10------|
E|--------------------------------------------------------------------|
 
G|-----------------|
D|---8-------------|
A|-----10-10-6-----|
E|-------------8-8-|
 
2:40 - one + one
G|--------------------------------------------------------------------|
D|--------------------------------------------------------------------|
A|--------------------------------------------------------------------|
E|--------------------------------------------------------------------|
 
2:52
G|--------------------------------------------------------------------|
D|---8-------------------8-------------------8------------------------|
A|-----10-10-10-10-10-10---10-10-10-10-10-10---10-10-10-10-10-10------|
E|--------------------------------------------------------------------|
 
G|-----------------|
D|---8-------------|  x2
A|-----10-10-6-----|
E|-------------8-8-|
 
3:05
G|------------------------------------------------------------------------------------|
D|---8-------------------8-------------------8-------------------8--------------------|
A|-----10-10-10-10-10-10---10-10-10-10-10-10---10-10-10-10-10-10---10-10-10-10-10-10--|
E|------------------------------------------------------------------------------------|
 
G|-------------------------------------------------------------------------------|
D|---8-------------------8-------------------8-------------------8---------------|
A|-----10-10-10-10-10-10---10-10-10-10-10-10---10-10-10-10-10-10---10-10-6-------|
E|-------------------------------------------------------------------------8-8---|
 
3:19
G|-------------------10-10-8-8-7-7-7------------------------------------|
D|---10-10-8-8-7-7-7-----------------8-------------------8--------------|
A|-------------------------------------10-10-10-10-10-10---10-10-6------|
E|-----------------------------------------------------------------8-8--|
 
G|-------------------10-10-8-8-7-7-7--12/----|
D|---10-10-8-8-7-7-7-------------------------|
A|-------------------------------------------|
E|-------------------------------------------|
 
            

READ  Robert Goulet - Have Yourself A Merry Little Christmas Bass | Ver. 1 | The site that provides the most complete music chords

You can find more useful information here: Australia.xemloibaihat.com/chord

Death From Above 1979 – One One Bass | Ver. 1
And searches related to this topic

#Death #Bass #Ver

Death From Above 1979 – One One Bass | Ver. 1

>>See more useful information provided by us here: See here.

Review the information related to the topic Death From Above 1979 – One One Bass | Ver. 1
again

Australia.xemloibaihat.com | Death From Above 1979 – One One Bass | Ver. 1


0:06
Intro
G|-------------------------------------------------------------------|
D|--8-------------------8-------------------8------------------------|
A|----10-10-10-10-10-10---10-10-10-10-10-10---10-10-10-10-10-10------|
E|-------------------------------------------------------------------|
 
G|-----------------|
D|---8-------------|   x6
A|-----10-10-6-----|
E|-------------8-8-|
 
0:45
G|-------------------10-10-8-8-7-7-7------------------------------------|
D|---10-10-8-8-7-7-7-----------------8-------------------8--------------|
A|-------------------------------------10-10-10-10-10-10---10-10-6------|
E|-----------------------------------------------------------------8-8--|
 
0:54
G|-------------------10-10-8-8-7-7-7---12-12-12-12-12-12-12-12-12-12-12-| (rapid strum on 12)
D|---10-10-8-8-7-7-7----------------------------------------------------|
A|----------------------------------------------------------------------|
E|----------------------------------------------------------------------|
 
1:01 - I walk in, the kid starts dancing
G|--------------------------------------------------------------------|
D|---8-------------------8-------------------8------------------------|
A|-----10-10-10-10-10-10---10-10-10-10-10-10---10-10-10-10-10-10------|
E|--------------------------------------------------------------------|
 
G|-----------------|
D|---8-------------|   x4
A|-----10-10-6-----|
E|-------------8-8-|
 
1:26
G|-------------------10-10-8-8-7-7-7------------------------------------|
D|---10-10-8-8-7-7-7-----------------8-------------------8--------------|  x2
A|-------------------------------------10-10-10-10-10-10---10-10-6------|
E|-----------------------------------------------------------------8-8--|
 
G|-------------------10-10-8-8-7-7-7----|
D|---10-10-8-8-7-7-7--------------------|
A|--------------------------------------|
E|--------------------------------------|
 
1:42
G|-----------------------------------------------------------------------|
D| 10-10-10-10-8-8-8-8------------------8-8-8-8-7-7-7-7------------------|   x6
A|---------------------8-8-8-8-8-8-8-8------------------6-6-6-6-6-6-6-6--|
E|-----------------------------------------------------------------------|
 
G|--20-20-20-20-20-20-20-20-19-19-19-19-19-19-19-19-------------------------|
D|--------------------------------------------------19-19-19-19-19-19-19-19-|
A|--------------------------------------------------------------------------|
E|--------------------------------------------------------------------------|
                                                                                x2 (unsure how many times
G|-19-19-19-19-19-19-19-19-17-17-17-17-17-17-17-17-------------------------|         he's strumming each
D|-------------------------------------------------17-17-17-17-17-17-17-17-|          note)
A|-------------------------------------------------------------------------|
E|-------------------------------------------------------------------------|
 
G|--------------------------------------------------------------------|
D|---8-------------------8-------------------8------------------------|
A|-----10-10-10-10-10-10---10-10-10-10-10-10---10-10-10-10-10-10------|
E|--------------------------------------------------------------------|
 
G|-----------------|
D|---8-------------|
A|-----10-10-6-----|
E|-------------8-8-|
 
2:40 - one + one
G|--------------------------------------------------------------------|
D|--------------------------------------------------------------------|
A|--------------------------------------------------------------------|
E|--------------------------------------------------------------------|
 
2:52
G|--------------------------------------------------------------------|
D|---8-------------------8-------------------8------------------------|
A|-----10-10-10-10-10-10---10-10-10-10-10-10---10-10-10-10-10-10------|
E|--------------------------------------------------------------------|
 
G|-----------------|
D|---8-------------|  x2
A|-----10-10-6-----|
E|-------------8-8-|
 
3:05
G|------------------------------------------------------------------------------------|
D|---8-------------------8-------------------8-------------------8--------------------|
A|-----10-10-10-10-10-10---10-10-10-10-10-10---10-10-10-10-10-10---10-10-10-10-10-10--|
E|------------------------------------------------------------------------------------|
 
G|-------------------------------------------------------------------------------|
D|---8-------------------8-------------------8-------------------8---------------|
A|-----10-10-10-10-10-10---10-10-10-10-10-10---10-10-10-10-10-10---10-10-6-------|
E|-------------------------------------------------------------------------8-8---|
 
3:19
G|-------------------10-10-8-8-7-7-7------------------------------------|
D|---10-10-8-8-7-7-7-----------------8-------------------8--------------|
A|-------------------------------------10-10-10-10-10-10---10-10-6------|
E|-----------------------------------------------------------------8-8--|
 
G|-------------------10-10-8-8-7-7-7--12/----|
D|---10-10-8-8-7-7-7-------------------------|
A|-------------------------------------------|
E|-------------------------------------------|
 
            

READ  Miley Cyrus - Golden G String Chords | Ver. 1 | The site that provides the most complete music chords

Thank you very much for your interest in our article. We hope this information is of great value to you.

You may also like

Leave a Comment