Home » Dusty Springfield – You Dont Have To Say You Love Me Tabs | Ver. 1 | The site that provides the most complete music chords

Dusty Springfield – You Dont Have To Say You Love Me Tabs | Ver. 1 | The site that provides the most complete music chords

Are you looking for a topic Dusty Springfield – You Dont Have To Say You Love Me Tabs | Ver. 1
right? If so, then you can watch it right here.

Dusty Springfield – You Dont Have To Say You Love Me Tabs | Ver. 1
| You can find many other song chords here

Australia.xemloibaihat.com | Dusty Springfield – You Dont Have To Say You Love Me Tabs | Ver. 1


[Verse 1]
 
 
  When I said...    I needed you...           You said...      You would always stay...
e|------------------------------------------|--------------------------------------------|
B|------------------------------------------|--------------------------------------------|
G|------------------9-9/10~~~--9-97~~~-----|--------------------------------------------|
D|-7--9--9/10~~~----------------------------|------------------12-12h14~~~--1210-10~~~--|
A|------------------------------------------|-10h12--12/14~~~----------------------------|
E|------------------------------------------|--------------------------------------------|
 
  It wasn't me...   Who changed, but you...   And now...  You've gone... Away...         [Optional fill]
e|------------------------------------------|--------------------------------------------|-------------------|
B|------------------------------------------|--------------------------------------------|-------------------|
G|------------------------------------------|--------------------------------------------|-------------------|
D|------------------10-10h12~~~--10-109~~~-|-10-10h12~~~--109~~~--10--7/9~~~-----------|-(9p7)-------------|
A|-8h10--10/12~~~---------------------------|--------------------------------------------|-------(10)-(9~~~)-|
E|------------------------------------------|--------------------------------------------|-------------------|
 
  Don't you see...  That now you've gone...   And I'm left...  Here on...   My own...
e|------------------------------------------|--------------------------------------------|
B|------------------------------------------|--------------------------------------------|
G|------------------9-9/10~~~--9-97~~~-----|--------------------------------------------|
D|-7--9--9/10~~~----------------------------|------------------12-12h14~~~--1210-10~~~--|
A|------------------------------------------|-10h12--12/14~~~----------------------------|
E|------------------------------------------|--------------------------------------------|
 
  That I have...    To follow you...          And beg...   You to...   Come home...
e|------------------------------------------|--------------------------------------------|
B|------------------------------------------|--------------------------------------------|
G|------------------------------------------|--------------------------------------------|
D|------------------10-10h12~~~--10-109~~~-|-10-10h12~~~--109~~~--10--12-12/14~~~------|
A|-8h10--10/12~~~---------------------------|--------------------------------------------|
E|------------------------------------------|--------------------------------------------|
 
 
 
[Chorus]
 
   You don't have to say you love me,         You don't have to stay forever,
                   Just be close at hand...                         I will understand
e|------------------------------------------|--------------------------------------------|
B|------------------------------------------|--------------------------------------------|
G|-------6----7--6--------------------------|-6--7-9--6--9/11--9--7p6~~~--7-9--7h9-76~--|
D|--7--9----7------9--7---9--11--9--11------|--------------------------------------------|
A|--------------------------------------7~~~|--------------------------------------------|
E|------------------------------------------|--------------------------------------------|
 
   Believe me, believe me,                    But believe me,
               I can't help but love you...               I'll never let you down...
e|------------------------------------------|--------------------------------------------|
B|------------------------------------------|--------------------------------------------|
G|-6-7/9--6---6-7/9--6---6-9/11-------------|---6-7~~~~~--9~~~-9-9/11~~~~-9~~~~~~--------|
D|------------------------------119-9~-97~|-9------------------------------------------|
A|------------------------------------------|--------------------------------------------|
E|------------------------------------------|--------------------------------------------|
 
 
 
[Verse 2]
 
  Left alone with just... a memory...         Life seems dead... and so unreal...
e|------------------------------------------|--------------------------------------------|
B|------------------------------------------|--------------------------------------------|
G|------------------9-9/10~~~--9-97~~~-----|--------------------------------------------|
D|-7--9--9/10~~~----------------------------|------------------12-12h14~~~--1210-10~~~--|
A|------------------------------------------|-10h12--12/14~~~----------------------------|
E|------------------------------------------|--------------------------------------------|
 
  All that's left... is loneliness...         There's nothing left... to feel...
e|------------------------------------------|--------------------------------------------|
B|------------------------------------------|--------------------------------------------|
G|------------------------------------------|--------------------------------------------|
D|------------------10-10h12~~~--10-109~~~-|-10-10h12~~~--109~~~--107--7~~~-----------|
A|-8h10--10/12~~~---------------------------|--------------------------------------------|
E|------------------------------------------|--------------------------------------------|
 
 
 
[Chorus]
 
   You don't have to say you love me,         You don't have to stay forever,
                   Just be close at hand...                         I will understand
e|------------------------------------------|--------------------------------------------|
B|------------------------------------------|--------------------------------------------|
G|-------6----7--6--------------------------|-6--7-9--6--9/11--9--7p6~~~--7-9--7h9-76~--|
D|--7--9----7------9--7---9--11--9--11------|--------------------------------------------|
A|--------------------------------------7~~~|--------------------------------------------|
E|------------------------------------------|--------------------------------------------|
 
   Believe meee...   Believe meeeeeee!
e|------------------------------------------|
B|------------------------------------------|
G|-6-7/9--9~~~~~~~---6-9/11--11~~~~~b13br11-|
D|------------------------------------------|
A|------------------------------------------|
E|------------------------------------------|
 
   You don't have to say you love me,         You don't have to stay forever,
                   Just be close at hand...                         I will understand
e|------------------------------------------|--------------------------------------------|
B|------------------------------------------|--------------------------------------------|
G|-------6----7--6--------------------------|-6--7-9--6--9/11--9--7p6~~~--7-9--7h9-76~--|
D|--7--9----7------9--7---9--11--9--11------|--------------------------------------------|
A|--------------------------------------7~~~|--------------------------------------------|
E|------------------------------------------|--------------------------------------------|
 
 
[Outro]
 
   Believe meee...   Believe meeeeeee...      Believe meeeeeeeeeeeeee!
e|------------------------------------------|--------------------------------------------|
B|------------------------------------------|--------------------------------------------|
G|-6-7/9--9~~~~~~~---6-9/9--9~~~~~~~~~~~~~--|-6-9/11~~~~~~~--9~~~~~~~--------------------|
D|------------------------------------------|--------------------------------------------|
A|------------------------------------------|--------------------------------------------|
E|------------------------------------------|--------------------------------------------|
            

See also  EMINEM feat MAJ – These Demons Chords and Tabs for Guitar and Piano | The site that provides the most complete music chords

You can find more useful information here: See here

Dusty Springfield – You Dont Have To Say You Love Me Tabs | Ver. 1
And searches related to this topic

#Dusty #Springfield #Dont #Love #Tabs #Ver

See also  H.e.r. best part Daniel caesar piano chords | a team piano chords | #1 song chords

Dusty Springfield – You Dont Have To Say You Love Me Tabs | Ver. 1

>>See more useful information provided by us here: See here.

Review the information related to the topic Dusty Springfield – You Dont Have To Say You Love Me Tabs | Ver. 1
again

Australia.xemloibaihat.com | Dusty Springfield – You Dont Have To Say You Love Me Tabs | Ver. 1


[Verse 1]
 
 
  When I said...    I needed you...           You said...      You would always stay...
e|------------------------------------------|--------------------------------------------|
B|------------------------------------------|--------------------------------------------|
G|------------------9-9/10~~~--9-97~~~-----|--------------------------------------------|
D|-7--9--9/10~~~----------------------------|------------------12-12h14~~~--1210-10~~~--|
A|------------------------------------------|-10h12--12/14~~~----------------------------|
E|------------------------------------------|--------------------------------------------|
 
  It wasn't me...   Who changed, but you...   And now...  You've gone... Away...         [Optional fill]
e|------------------------------------------|--------------------------------------------|-------------------|
B|------------------------------------------|--------------------------------------------|-------------------|
G|------------------------------------------|--------------------------------------------|-------------------|
D|------------------10-10h12~~~--10-109~~~-|-10-10h12~~~--109~~~--10--7/9~~~-----------|-(9p7)-------------|
A|-8h10--10/12~~~---------------------------|--------------------------------------------|-------(10)-(9~~~)-|
E|------------------------------------------|--------------------------------------------|-------------------|
 
  Don't you see...  That now you've gone...   And I'm left...  Here on...   My own...
e|------------------------------------------|--------------------------------------------|
B|------------------------------------------|--------------------------------------------|
G|------------------9-9/10~~~--9-97~~~-----|--------------------------------------------|
D|-7--9--9/10~~~----------------------------|------------------12-12h14~~~--1210-10~~~--|
A|------------------------------------------|-10h12--12/14~~~----------------------------|
E|------------------------------------------|--------------------------------------------|
 
  That I have...    To follow you...          And beg...   You to...   Come home...
e|------------------------------------------|--------------------------------------------|
B|------------------------------------------|--------------------------------------------|
G|------------------------------------------|--------------------------------------------|
D|------------------10-10h12~~~--10-109~~~-|-10-10h12~~~--109~~~--10--12-12/14~~~------|
A|-8h10--10/12~~~---------------------------|--------------------------------------------|
E|------------------------------------------|--------------------------------------------|
 
 
 
[Chorus]
 
   You don't have to say you love me,         You don't have to stay forever,
                   Just be close at hand...                         I will understand
e|------------------------------------------|--------------------------------------------|
B|------------------------------------------|--------------------------------------------|
G|-------6----7--6--------------------------|-6--7-9--6--9/11--9--7p6~~~--7-9--7h9-76~--|
D|--7--9----7------9--7---9--11--9--11------|--------------------------------------------|
A|--------------------------------------7~~~|--------------------------------------------|
E|------------------------------------------|--------------------------------------------|
 
   Believe me, believe me,                    But believe me,
               I can't help but love you...               I'll never let you down...
e|------------------------------------------|--------------------------------------------|
B|------------------------------------------|--------------------------------------------|
G|-6-7/9--6---6-7/9--6---6-9/11-------------|---6-7~~~~~--9~~~-9-9/11~~~~-9~~~~~~--------|
D|------------------------------119-9~-97~|-9------------------------------------------|
A|------------------------------------------|--------------------------------------------|
E|------------------------------------------|--------------------------------------------|
 
 
 
[Verse 2]
 
  Left alone with just... a memory...         Life seems dead... and so unreal...
e|------------------------------------------|--------------------------------------------|
B|------------------------------------------|--------------------------------------------|
G|------------------9-9/10~~~--9-97~~~-----|--------------------------------------------|
D|-7--9--9/10~~~----------------------------|------------------12-12h14~~~--1210-10~~~--|
A|------------------------------------------|-10h12--12/14~~~----------------------------|
E|------------------------------------------|--------------------------------------------|
 
  All that's left... is loneliness...         There's nothing left... to feel...
e|------------------------------------------|--------------------------------------------|
B|------------------------------------------|--------------------------------------------|
G|------------------------------------------|--------------------------------------------|
D|------------------10-10h12~~~--10-109~~~-|-10-10h12~~~--109~~~--107--7~~~-----------|
A|-8h10--10/12~~~---------------------------|--------------------------------------------|
E|------------------------------------------|--------------------------------------------|
 
 
 
[Chorus]
 
   You don't have to say you love me,         You don't have to stay forever,
                   Just be close at hand...                         I will understand
e|------------------------------------------|--------------------------------------------|
B|------------------------------------------|--------------------------------------------|
G|-------6----7--6--------------------------|-6--7-9--6--9/11--9--7p6~~~--7-9--7h9-76~--|
D|--7--9----7------9--7---9--11--9--11------|--------------------------------------------|
A|--------------------------------------7~~~|--------------------------------------------|
E|------------------------------------------|--------------------------------------------|
 
   Believe meee...   Believe meeeeeee!
e|------------------------------------------|
B|------------------------------------------|
G|-6-7/9--9~~~~~~~---6-9/11--11~~~~~b13br11-|
D|------------------------------------------|
A|------------------------------------------|
E|------------------------------------------|
 
   You don't have to say you love me,         You don't have to stay forever,
                   Just be close at hand...                         I will understand
e|------------------------------------------|--------------------------------------------|
B|------------------------------------------|--------------------------------------------|
G|-------6----7--6--------------------------|-6--7-9--6--9/11--9--7p6~~~--7-9--7h9-76~--|
D|--7--9----7------9--7---9--11--9--11------|--------------------------------------------|
A|--------------------------------------7~~~|--------------------------------------------|
E|------------------------------------------|--------------------------------------------|
 
 
[Outro]
 
   Believe meee...   Believe meeeeeee...      Believe meeeeeeeeeeeeee!
e|------------------------------------------|--------------------------------------------|
B|------------------------------------------|--------------------------------------------|
G|-6-7/9--9~~~~~~~---6-9/9--9~~~~~~~~~~~~~--|-6-9/11~~~~~~~--9~~~~~~~--------------------|
D|------------------------------------------|--------------------------------------------|
A|------------------------------------------|--------------------------------------------|
E|------------------------------------------|--------------------------------------------|
            

See also  Coldplay - In my place Chords | The site that provides the most complete music chords

Thank you very much for your interest in our article. We hope this information is of great value to you.

Leave a Reply

Your email address will not be published.