Home » I The Mighty – Four Letter Words Chords | Ver. 1 | The site that provides the most complete music chords

I The Mighty – Four Letter Words Chords | Ver. 1 | The site that provides the most complete music chords

by Andy Frank

Are you looking for a topic I The Mighty – Four Letter Words Chords | Ver. 1
right? If so, then you can watch it right here.

Table of Contents

I The Mighty – Four Letter Words Chords | Ver. 1
| You can find many other song chords here

Australia.xemloibaihat.com | I The Mighty – Four Letter Words Chords | Ver. 1


[Intro]
 
G|------------------------------------------------------------------------------------------------|
D|------------------------------------------------8--8--------------------8--8--------------------|
A|------------------------------------------------------8-8-8-9--9--8-8-8-------8-8-8-9--9--8-8-8-|
E|6--6--------------------6--6--------------------------------------------------------------------|
B|------6-6-6-7--7--6-6-6-------6-6-6-7--7--6-6-6-------------------------------------------------|
 
 
[Verse 1]
 
G|------------------------------------------------------------------------------------------------|
D|------------------------------------------------------------------------------------------------|
A|------------------------6--6--6-6-8-9--9--9-9-8-----------6-8--8--8-8-6-----------------6-8-6---|
E|6--6--------------------------------------------9--9--9-9---------------7--7--7-7---7-9-------9-|
B|------6-6-6-7--7--7-7-7-----------------------------------------------------------9-------------|
 
G|------------------------------------------------------------------------------------------------|
D|------------------------------------------------------------------------------------------7--8--|
A|------------------------6--6--6-6-8-9--9--9-9-8-----------6-8--8--8-8-4-5--5--5-5-7-8--8--------|
E|6--6--------------------------------------------9--9--9-9---------------------------------------|
B|------6-6-6-7--7--7-7-7-------------------------------------------------------------------------|
 
G|------------------------------------------------------------------------------------------------|
D|------------------------------------------------------------------------------------------------|
A|------------------------4--4--4-4-4-4--4--4-4-4-----------------------------6---4-------4---3---|
E|------------------------------------------------------------------------6-----------4-----------|
B|4--4--4-4-4-4--4--4-4-4-------------------------6--6--6-6-6-6--6--6-6-6-------------------------|
 
 
G|------------------------------------------------------------------------------------------------|
D|------------------------------------------------------------------------------------------------|
A|------------------------------------------------------------------------------------8-8-8-8-8-8-|
E|------------------------------------------------------------------------------------------------|
B|4--4--4-4-4-4--4--4-4-4-2--2--2-2-2-2--2--2-2-2-6--6--6-6-6-6--6--6-6-6-6--6--6-6-6-------------|
 
 
[Chorus]
 
G|------------------------------------------------------------------------------------------------|
D|------------------------------------------------------------------------------------------------|
A|------------------------------------------------------------------------------------------------|
E|----------------------4-6--6--6-6-6-4--4--4-4-4-------------------------------------4--4--4-4-4-|
B|4--4--4-4-6-7--7--7-7---------------------------4--4--4-4-6-7--7--7-7-7-2--2--2-2-2-------------|
 
G|------------------------------------------------------------------------------------------------|
D|------------------------------------------------------------------------------------------------|
A|----------------------------3-3-4-4-----4h6-4h6-------------------------------------------------|
E|------------------------6-6---------4-4-------------------------------4-6--6--6-6-6-4--4--4-4-4-|
B|4-4-4-4-4-6-7-7-7-6-7-6-------------------------4--4--4-4-6-7--7--7-7---------------------------|
 
 
[Verse 2]
 
G|-----------------------------------------------|
D|------------------------8--8-------------------|
A|-----------------------------8-8-8-6--6--------|
E|6--6-------------------------------------9-9-9-|
B|------6-6-6-7--7--6-6-6------------------------|
 
G|------------------------------------------------------------------------------------------------|
D|------------------------------------------------------------------------------------------------|
A|------------------------6--6--6-6-8-9--9--9-9-8-----------6-8--8--8-8-6-----------------6-8-6---|
E|6--6--------------------------------------------9--9--9-9---------------7--7--7-7---7-9-------9-|
B|------6-6-6-7--7--7-7-7-----------------------------------------------------------9-------------|
 
G|------------------------------------------------------------------------------------7-----------|
D|8--8------------------------------------------------------------------------------7----7--------|
A|------8-8-8-9--9--9-9-9-6--6--6-6-8-9--9--9-9-8-----------6-8--8--8-8-4-5--5--5-5---------8--5--|
E|------------------------------------------------9--9--9-9---------------------------------------|
B|------------------------------------------------------------------------------------------------|
 
G|------------------------------------------------------------------------------------------------|
D|------------------------------------------------------------------------------------------------|
A|------------------------4--4--4-4-4-4--4--4-4-4-------------8--6------------6---4-------4---3---|
E|---------------------------------------------------8-----8-------9--8---6-----------4-----------|
B|4--4--4-4-4-4--4--4-4-4-------------------------6-----6-----------------------------------------|
 
G|------------------------------------------------------------------------------------------------|
D|------------------------------------------------------------------------------------------------|
A|---------------------------------------------------8--------6--8--6-----------------------------|
E|------------------------------------------------------8--9-----------9--8-----------------------|
B|4--4--4-4-4-4--4--4-4-4-2--2--2-2-2-2--2--2-2-2-6--------------------------6--------------------|
 
 
[Chorus]
 
G|------------------------------------------------------------------------------------------------|
D|------------------------------------------------------------------------------------------------|
A|------------------------------------------------------------------------------------------------|
E|----------------------4-6--6--6-6-6-4--4--4-4-4-------------------------------------4--4--4-4-4-|
B|4--4--4-4-6-7--7--7-7---------------------------4--4--4-4-6-7--7--7-7-7-2--2--2-2-2-------------|
 
G|------------------------------------------------------------------------------------------------|
D|------------------------------------------------------------------------------------------------|
A|----------------------------3-3-4-4-----4h6-4h6-------------------------------------------------|
E|------------------------6-6---------4-4-------------------------------4-6--6--6-6-6-4--4--4-4-4-|
B|4-4-4-4-4-6-7-7-7-6-7-6-------------------------4--4--4-4-6-7--7--7-7---------------------------|
 
G|------------------------------------------------|
D|------------------------------------------------|
A|------------------------------------------------|
E|----------------------4-6--6--6-6-6-4-4-4-5-5---|
B|4--4--4-4-6-7--7--7-7---------------------------|
 
Rest
 
[Bridge]
 
G|------------------------------------------------------------------------------------------------|
D|8--8-------------------8--8---------------------------------------------------------------------|
A|-----8-8-8-9--9--8-8-8------8-8-8-9--9--8-8-8-------------------------------------8-8-8-8-8-8-8-|
E|------------------------------------------------------------------------------------------------|
B|----------------------------------------------4--4--4-4-4-2--2--2-2-2-6-6-6-6-6-6---------------|
 
G|----------------------------------------------------------5-8--8--8-8-6-------------------------|
D|------------------------------------------------8--8--8-8---------------------------------------|
A|------------------------------------------------------------------------------------------------|
E|6--6--------------------6--6--------------------------------------------------------------------|
B|------6-6-6-7--7--6-6-6-------6-6-6-7--7--6-6-6-------------------------6-6-6-6-6-6-6-6-6-6-6-6-|
 
G|------------------------------------------------|
D|------------------------------------------------|
A|------------------------------------------------|
E|------------------------------------------------|
B|6-6-6-6-6-6-6-6-6-6-6-6-6-6-6-6-6-6-6----------|
 
 
[Chorus]
 
G|------------------------------------------------------------------------------------------------|
D|------------------------------------------------------------------------------------------------|
A|------------------------------------------------------------------------------------------------|
E|----------------------4-6--6--6-6-6-4--4--4-4-4-------------------------------------4--4--4-4-4-|
B|4--4--4-4-6-7--7--7-7---------------------------4--4--4-4-6-7--7--7-7-7-2--2--2-2-2-------------|
 
G|------------------------------------------------------------------------------------------------|
D|------------------------------------------------------------------------------------------------|
A|----------------------------3-3-4-4-----4h6-4h6-------------------------------------------------|
E|------------------------6-6---------4-4-------------------------------4-6--6--6-6-6-4--4--4-4-4-|
B|4-4-4-4-4-6-7-7-7-6-7-6-------------------------4--4--4-4-6-7--7--7-7---------------------------|
 
 
[Outro]
 
G|------------------------------------------------------------------------------5-5-5-6-6-6-8-8-8-|
D|------------------------8-8-8-8-8-8-6-6-6-6-6-6-------------------------8-8-8-------------------|
A|------------------------------------------------------------------------------------------------|
E|------------------------------------------------------------------------------------------------|
B|4-4-4-4-4-6-7-7-7-7-7-6-------------------------4-4-4-4-4-6-7-7-7-7-7-6-------------------------|
 
G|------------------------------------------------------------------------------------------------|
D|------------------------------------------------------------------------------------------------|
A|------------------4-3---------4-4-4-------4-6-6-------------------4-3---------------------------|
E|------6-6-6-----------4-6-6-6-------4-4-4-------------6-6-6-----------4---6---6---4-4-4-4-4-4-4~|
B|4-4-4-------7-7-7-------------------------------4-4-4-------7-7-7-------------------------------|
            

READ  George Strait - I Cross My Heart | jar of hearts piano chord | #1 song chords

You can find more useful information here: https://australia.xemloibaihat.com/chord

I The Mighty – Four Letter Words Chords | Ver. 1
And searches related to this topic

#Mighty #Letter #Words #Chords #Ver

I The Mighty – Four Letter Words Chords | Ver. 1

>>See more useful information provided by us here: https://australia.xemloibaihat.com/.

Review the information related to the topic I The Mighty – Four Letter Words Chords | Ver. 1
again

Australia.xemloibaihat.com | I The Mighty – Four Letter Words Chords | Ver. 1


[Intro]
 
G|------------------------------------------------------------------------------------------------|
D|------------------------------------------------8--8--------------------8--8--------------------|
A|------------------------------------------------------8-8-8-9--9--8-8-8-------8-8-8-9--9--8-8-8-|
E|6--6--------------------6--6--------------------------------------------------------------------|
B|------6-6-6-7--7--6-6-6-------6-6-6-7--7--6-6-6-------------------------------------------------|
 
 
[Verse 1]
 
G|------------------------------------------------------------------------------------------------|
D|------------------------------------------------------------------------------------------------|
A|------------------------6--6--6-6-8-9--9--9-9-8-----------6-8--8--8-8-6-----------------6-8-6---|
E|6--6--------------------------------------------9--9--9-9---------------7--7--7-7---7-9-------9-|
B|------6-6-6-7--7--7-7-7-----------------------------------------------------------9-------------|
 
G|------------------------------------------------------------------------------------------------|
D|------------------------------------------------------------------------------------------7--8--|
A|------------------------6--6--6-6-8-9--9--9-9-8-----------6-8--8--8-8-4-5--5--5-5-7-8--8--------|
E|6--6--------------------------------------------9--9--9-9---------------------------------------|
B|------6-6-6-7--7--7-7-7-------------------------------------------------------------------------|
 
G|------------------------------------------------------------------------------------------------|
D|------------------------------------------------------------------------------------------------|
A|------------------------4--4--4-4-4-4--4--4-4-4-----------------------------6---4-------4---3---|
E|------------------------------------------------------------------------6-----------4-----------|
B|4--4--4-4-4-4--4--4-4-4-------------------------6--6--6-6-6-6--6--6-6-6-------------------------|
 
 
G|------------------------------------------------------------------------------------------------|
D|------------------------------------------------------------------------------------------------|
A|------------------------------------------------------------------------------------8-8-8-8-8-8-|
E|------------------------------------------------------------------------------------------------|
B|4--4--4-4-4-4--4--4-4-4-2--2--2-2-2-2--2--2-2-2-6--6--6-6-6-6--6--6-6-6-6--6--6-6-6-------------|
 
 
[Chorus]
 
G|------------------------------------------------------------------------------------------------|
D|------------------------------------------------------------------------------------------------|
A|------------------------------------------------------------------------------------------------|
E|----------------------4-6--6--6-6-6-4--4--4-4-4-------------------------------------4--4--4-4-4-|
B|4--4--4-4-6-7--7--7-7---------------------------4--4--4-4-6-7--7--7-7-7-2--2--2-2-2-------------|
 
G|------------------------------------------------------------------------------------------------|
D|------------------------------------------------------------------------------------------------|
A|----------------------------3-3-4-4-----4h6-4h6-------------------------------------------------|
E|------------------------6-6---------4-4-------------------------------4-6--6--6-6-6-4--4--4-4-4-|
B|4-4-4-4-4-6-7-7-7-6-7-6-------------------------4--4--4-4-6-7--7--7-7---------------------------|
 
 
[Verse 2]
 
G|-----------------------------------------------|
D|------------------------8--8-------------------|
A|-----------------------------8-8-8-6--6--------|
E|6--6-------------------------------------9-9-9-|
B|------6-6-6-7--7--6-6-6------------------------|
 
G|------------------------------------------------------------------------------------------------|
D|------------------------------------------------------------------------------------------------|
A|------------------------6--6--6-6-8-9--9--9-9-8-----------6-8--8--8-8-6-----------------6-8-6---|
E|6--6--------------------------------------------9--9--9-9---------------7--7--7-7---7-9-------9-|
B|------6-6-6-7--7--7-7-7-----------------------------------------------------------9-------------|
 
G|------------------------------------------------------------------------------------7-----------|
D|8--8------------------------------------------------------------------------------7----7--------|
A|------8-8-8-9--9--9-9-9-6--6--6-6-8-9--9--9-9-8-----------6-8--8--8-8-4-5--5--5-5---------8--5--|
E|------------------------------------------------9--9--9-9---------------------------------------|
B|------------------------------------------------------------------------------------------------|
 
G|------------------------------------------------------------------------------------------------|
D|------------------------------------------------------------------------------------------------|
A|------------------------4--4--4-4-4-4--4--4-4-4-------------8--6------------6---4-------4---3---|
E|---------------------------------------------------8-----8-------9--8---6-----------4-----------|
B|4--4--4-4-4-4--4--4-4-4-------------------------6-----6-----------------------------------------|
 
G|------------------------------------------------------------------------------------------------|
D|------------------------------------------------------------------------------------------------|
A|---------------------------------------------------8--------6--8--6-----------------------------|
E|------------------------------------------------------8--9-----------9--8-----------------------|
B|4--4--4-4-4-4--4--4-4-4-2--2--2-2-2-2--2--2-2-2-6--------------------------6--------------------|
 
 
[Chorus]
 
G|------------------------------------------------------------------------------------------------|
D|------------------------------------------------------------------------------------------------|
A|------------------------------------------------------------------------------------------------|
E|----------------------4-6--6--6-6-6-4--4--4-4-4-------------------------------------4--4--4-4-4-|
B|4--4--4-4-6-7--7--7-7---------------------------4--4--4-4-6-7--7--7-7-7-2--2--2-2-2-------------|
 
G|------------------------------------------------------------------------------------------------|
D|------------------------------------------------------------------------------------------------|
A|----------------------------3-3-4-4-----4h6-4h6-------------------------------------------------|
E|------------------------6-6---------4-4-------------------------------4-6--6--6-6-6-4--4--4-4-4-|
B|4-4-4-4-4-6-7-7-7-6-7-6-------------------------4--4--4-4-6-7--7--7-7---------------------------|
 
G|------------------------------------------------|
D|------------------------------------------------|
A|------------------------------------------------|
E|----------------------4-6--6--6-6-6-4-4-4-5-5---|
B|4--4--4-4-6-7--7--7-7---------------------------|
 
Rest
 
[Bridge]
 
G|------------------------------------------------------------------------------------------------|
D|8--8-------------------8--8---------------------------------------------------------------------|
A|-----8-8-8-9--9--8-8-8------8-8-8-9--9--8-8-8-------------------------------------8-8-8-8-8-8-8-|
E|------------------------------------------------------------------------------------------------|
B|----------------------------------------------4--4--4-4-4-2--2--2-2-2-6-6-6-6-6-6---------------|
 
G|----------------------------------------------------------5-8--8--8-8-6-------------------------|
D|------------------------------------------------8--8--8-8---------------------------------------|
A|------------------------------------------------------------------------------------------------|
E|6--6--------------------6--6--------------------------------------------------------------------|
B|------6-6-6-7--7--6-6-6-------6-6-6-7--7--6-6-6-------------------------6-6-6-6-6-6-6-6-6-6-6-6-|
 
G|------------------------------------------------|
D|------------------------------------------------|
A|------------------------------------------------|
E|------------------------------------------------|
B|6-6-6-6-6-6-6-6-6-6-6-6-6-6-6-6-6-6-6----------|
 
 
[Chorus]
 
G|------------------------------------------------------------------------------------------------|
D|------------------------------------------------------------------------------------------------|
A|------------------------------------------------------------------------------------------------|
E|----------------------4-6--6--6-6-6-4--4--4-4-4-------------------------------------4--4--4-4-4-|
B|4--4--4-4-6-7--7--7-7---------------------------4--4--4-4-6-7--7--7-7-7-2--2--2-2-2-------------|
 
G|------------------------------------------------------------------------------------------------|
D|------------------------------------------------------------------------------------------------|
A|----------------------------3-3-4-4-----4h6-4h6-------------------------------------------------|
E|------------------------6-6---------4-4-------------------------------4-6--6--6-6-6-4--4--4-4-4-|
B|4-4-4-4-4-6-7-7-7-6-7-6-------------------------4--4--4-4-6-7--7--7-7---------------------------|
 
 
[Outro]
 
G|------------------------------------------------------------------------------5-5-5-6-6-6-8-8-8-|
D|------------------------8-8-8-8-8-8-6-6-6-6-6-6-------------------------8-8-8-------------------|
A|------------------------------------------------------------------------------------------------|
E|------------------------------------------------------------------------------------------------|
B|4-4-4-4-4-6-7-7-7-7-7-6-------------------------4-4-4-4-4-6-7-7-7-7-7-6-------------------------|
 
G|------------------------------------------------------------------------------------------------|
D|------------------------------------------------------------------------------------------------|
A|------------------4-3---------4-4-4-------4-6-6-------------------4-3---------------------------|
E|------6-6-6-----------4-6-6-6-------4-4-4-------------6-6-6-----------4---6---6---4-4-4-4-4-4-4~|
B|4-4-4-------7-7-7-------------------------------4-4-4-------7-7-7-------------------------------|
            

READ  RAYE – Love Of Your Life Chords and Tabs for Guitar and Piano | The site that provides the most complete music chords

Thank you very much for your interest in our article. We hope this information is of great value to you.

You may also like

Leave a Comment