Home ยป Justin Bieber – Hold On Ukulele | Ver. 1 | The site that provides the most complete music chords

Justin Bieber – Hold On Ukulele | Ver. 1 | The site that provides the most complete music chords

Are you looking for a topic Justin Bieber – Hold On Ukulele | Ver. 1
right? If so, then you can watch it right here.

Justin Bieber – Hold On Ukulele | Ver. 1
| You can find many other song chords here

Australia.xemloibaihat.com | Justin Bieber – Hold On Ukulele | Ver. 1


[Intro]
   C#m                B                 A                 B
A|---7------7-------|---7------7------|---7------7------|---7------7------|
E|-9---9--9---------|-7---7--7--------|-----------------|-7---7--7--------|
C|------------------|-----------------|-9---9--9--------|-----------------|
G|------------------|-----------------|-----------------|-----------------|
 
 
[Verse 1]
You know you can call me if you need someone
I'll pick up the pieces if you come undone
   C#m                B                 A                 B
A|---7------7-------|---7------7------|---7------7------|---7------7------|
E|-9---9--9---------|-7---7--7--------|-----------------|-7---7--7--------|
C|------------------|-----------------|-9---9--9--------|-----------------| x2
G|------------------|-----------------|-----------------|-----------------|
 
 
[Pre-Chorus]
Painting stars up on your ceiling
'Cause you wish that you could find some feeling, yeah, you
   C#m                B                 A                 B
A|---7------7-------|---7------7------|---7------7------|---7------7------|
E|-9---9--9---------|-7---7--7--------|-----------------|-7---7--7--------|
C|------------------|-----------------|-9---9--9--------|-----------------|
G|------------------|-----------------|-----------------|-----------------|
 
You know you can call me if you need someone
   C#m
A|---7------7-------|-----------------|-----------------|-----------------|
E|-9---9--9---------|-----------------|-----------------|-----------------|
C|------------------|-----------------|-----------------|-----------------|
G|------------------|-----------------|-----------------|-----------------|
 
 
[Chorus]
              C#m
I need you to hold on
B                         A        B
Heaven is a place not too far away
                     C#m            B
We all know I should be the one to say
              A                     E
we all make mistakes (we all make mistakes)
 
                 C#m
Take my hand and hold on
B                           A          B
Tell me everything that you need to say
                    C#m              B
Cause I know how it feels to be someone
A               E                   (C#m)
feels to be someone who loses their way
 
 
[Verse 2]
                   B                    A      B
You're looking for answers in a place unknown
C#m               B                          A      E
  You need the connection but you can't get close
 
 
[Pre-Chorus]
C#m                B
Painting stars up on your ceiling
          A                   B
Cause you wish that you could find some feelin, yeah, you
C#m                 B              E       A   N.C.
  You know you can call me if you need someone
 
 
[Chorus]
              C#m
I need you to hold on
B                         A        B
Heaven is a place not too far away
                     C#m            B
We all know I should be the one to say
              A                     E
we all make mistakes (we all make mistakes)
 
                 C#m
Take my hand and hold on
B                           A           B
Tell me everything that you need to say
                    C#m              B
Cause I know how it feels to be someone
A               E
feels to be someone who loses their way
 
 
[Post-Chorus]
C#m
Midnight till mornin
B
Call if you need somebody
A                        B
I will be there for you (I will be there for you)
C#m
Midnight till mornin
B
Call if you need somebody
A                   N.C.
I will be there for you
 
 
[Chorus]
              C#m
I need you to hold on
B                         A        B
Heaven is a place not too far away
                     C#m            B
We all know I should be the one to say
              A     E
we all make mistakes
 
                 C#m
Take my hand and hold on
B                           A           B
Tell me everything that you need to say
                    C#m              B
Cause I know how it feels to be someone
A               E
feels to be someone who loses their way
 
 
[Post-Chorus]
C#m
Midnight till mornin
B
Call if you need somebody
A                       B
I will be there for you
C#m
Midnight till mornin
B
Call if you need somebody
A
I will be there for you
            

See also  Home Gabrielle Aplin Cover | home gabrielle aplin chords | Website providing Australia's #1 song chords

You can find more useful information here: Australia.xemloibaihat.com/chord

Justin Bieber – Hold On Ukulele | Ver. 1
And searches related to this topic

#Justin #Bieber #Hold #Ukulele #Ver

See also  How to Make Chords for Your Vocal Melody | Music Production for Beginners | a team piano chords | #1 song chords

Justin Bieber – Hold On Ukulele | Ver. 1

>>See more useful information provided by us here: See here.

Review the information related to the topic Justin Bieber – Hold On Ukulele | Ver. 1
again

Australia.xemloibaihat.com | Justin Bieber – Hold On Ukulele | Ver. 1


[Intro]
   C#m                B                 A                 B
A|---7------7-------|---7------7------|---7------7------|---7------7------|
E|-9---9--9---------|-7---7--7--------|-----------------|-7---7--7--------|
C|------------------|-----------------|-9---9--9--------|-----------------|
G|------------------|-----------------|-----------------|-----------------|
 
 
[Verse 1]
You know you can call me if you need someone
I'll pick up the pieces if you come undone
   C#m                B                 A                 B
A|---7------7-------|---7------7------|---7------7------|---7------7------|
E|-9---9--9---------|-7---7--7--------|-----------------|-7---7--7--------|
C|------------------|-----------------|-9---9--9--------|-----------------| x2
G|------------------|-----------------|-----------------|-----------------|
 
 
[Pre-Chorus]
Painting stars up on your ceiling
'Cause you wish that you could find some feeling, yeah, you
   C#m                B                 A                 B
A|---7------7-------|---7------7------|---7------7------|---7------7------|
E|-9---9--9---------|-7---7--7--------|-----------------|-7---7--7--------|
C|------------------|-----------------|-9---9--9--------|-----------------|
G|------------------|-----------------|-----------------|-----------------|
 
You know you can call me if you need someone
   C#m
A|---7------7-------|-----------------|-----------------|-----------------|
E|-9---9--9---------|-----------------|-----------------|-----------------|
C|------------------|-----------------|-----------------|-----------------|
G|------------------|-----------------|-----------------|-----------------|
 
 
[Chorus]
              C#m
I need you to hold on
B                         A        B
Heaven is a place not too far away
                     C#m            B
We all know I should be the one to say
              A                     E
we all make mistakes (we all make mistakes)
 
                 C#m
Take my hand and hold on
B                           A          B
Tell me everything that you need to say
                    C#m              B
Cause I know how it feels to be someone
A               E                   (C#m)
feels to be someone who loses their way
 
 
[Verse 2]
                   B                    A      B
You're looking for answers in a place unknown
C#m               B                          A      E
  You need the connection but you can't get close
 
 
[Pre-Chorus]
C#m                B
Painting stars up on your ceiling
          A                   B
Cause you wish that you could find some feelin, yeah, you
C#m                 B              E       A   N.C.
  You know you can call me if you need someone
 
 
[Chorus]
              C#m
I need you to hold on
B                         A        B
Heaven is a place not too far away
                     C#m            B
We all know I should be the one to say
              A                     E
we all make mistakes (we all make mistakes)
 
                 C#m
Take my hand and hold on
B                           A           B
Tell me everything that you need to say
                    C#m              B
Cause I know how it feels to be someone
A               E
feels to be someone who loses their way
 
 
[Post-Chorus]
C#m
Midnight till mornin
B
Call if you need somebody
A                        B
I will be there for you (I will be there for you)
C#m
Midnight till mornin
B
Call if you need somebody
A                   N.C.
I will be there for you
 
 
[Chorus]
              C#m
I need you to hold on
B                         A        B
Heaven is a place not too far away
                     C#m            B
We all know I should be the one to say
              A     E
we all make mistakes
 
                 C#m
Take my hand and hold on
B                           A           B
Tell me everything that you need to say
                    C#m              B
Cause I know how it feels to be someone
A               E
feels to be someone who loses their way
 
 
[Post-Chorus]
C#m
Midnight till mornin
B
Call if you need somebody
A                       B
I will be there for you
C#m
Midnight till mornin
B
Call if you need somebody
A
I will be there for you
            

See also  Kelly Family - Say That You Love Me Chords | Ver. 1 | The site that provides the most complete music chords

Thank you very much for your interest in our article. We hope this information is of great value to you.

Leave a Reply

Your email address will not be published.