Home » Kent – Stay With Me Chords | Ver. 1 | The site that provides the most complete music chords

Kent – Stay With Me Chords | Ver. 1 | The site that provides the most complete music chords

by Andy Frank

Are you looking for a topic Kent – Stay With Me Chords | Ver. 1
right? If so, then you can watch it right here.

Kent – Stay With Me Chords | Ver. 1
| You can find many other song chords here

Australia.xemloibaihat.com | Kent – Stay With Me Chords | Ver. 1


Intro:
| Bm  | Bm A/B | x2
| Em7 | Em7 | Bm | Bm | x2
 
(Guitar 1)
   Em7                   Bm
e|------------------------------------|
B|-2h3--------------------------------|
G|-----------------------4h6----------|
D|-----2---------------------4--------|
A|------------------------------------|
E|------------------------------------|  x2
 
(Guitar 2)
   Em7                   Bm
e|-----------------------------------------------|
B|-----------------------------------------------|
G|-----------------------------------------------|
D|--------/7-5------/7-5-------------------------|
A|------------------------------/7-5------/5-4---|
E|-----------------------------------------------|  x2
 
[Verse 1]
   Em7
I feel like everybody said I would feel
     Bm
It's over now, so kill the lights
   Em7
I need what everybody said I would need
     Bm                    A
I'm tied uptight by your China voice
              G
that always broke when I made you sad
 
[Chorus]
                Em7
Stay with me, stay
                     Bm
Don't leave me this way
                Em7
Stay with me, stay
                      Bm
I'll do whatever you say
 
[Verse 2]
  Em7
I do what everybody said I would do
     Bm
It's over now, so kill the lights
  Em7
I go where everybody said I would go
        Bm
like a weeping child
             A
Were you the only one
              G
that made it feel right being me
 
[Chorus]
                Em7
Stay with me, stay
                     Bm
Don't leave me this way
                Em7
Stay with me, stay
                      Bm
I'll do whatever you say
 
[Bridge]
G           F#m          Em7
  And like today awaits tomorrow
Bm
  Like tomorrow needs today
G              F#m             Em7
  I need your simple words to follow
F#
  I'll do whatever you say
 
[Interlude]
| Em7 | Em7 | Bm | Bm | x2
 
[Chorus]
                Em7
Stay with me, stay
                     Bm
Don't leave me this way
                Em7
Stay with me, stay
                      Bm
I'll do whatever you say
                Em7
Stay with me, stay
            

READ  Billie Eilish - xanny Chords | The site that provides the most complete music chords

You can find more useful information here: See more

Kent – Stay With Me Chords | Ver. 1
And searches related to this topic

#Kent #Stay #Chords #Ver

Kent – Stay With Me Chords | Ver. 1

>>See more useful information provided by us here: See more here.

Review the information related to the topic Kent – Stay With Me Chords | Ver. 1
again

Australia.xemloibaihat.com | Kent – Stay With Me Chords | Ver. 1


Intro:
| Bm  | Bm A/B | x2
| Em7 | Em7 | Bm | Bm | x2
 
(Guitar 1)
   Em7                   Bm
e|------------------------------------|
B|-2h3--------------------------------|
G|-----------------------4h6----------|
D|-----2---------------------4--------|
A|------------------------------------|
E|------------------------------------|  x2
 
(Guitar 2)
   Em7                   Bm
e|-----------------------------------------------|
B|-----------------------------------------------|
G|-----------------------------------------------|
D|--------/7-5------/7-5-------------------------|
A|------------------------------/7-5------/5-4---|
E|-----------------------------------------------|  x2
 
[Verse 1]
   Em7
I feel like everybody said I would feel
     Bm
It's over now, so kill the lights
   Em7
I need what everybody said I would need
     Bm                    A
I'm tied uptight by your China voice
              G
that always broke when I made you sad
 
[Chorus]
                Em7
Stay with me, stay
                     Bm
Don't leave me this way
                Em7
Stay with me, stay
                      Bm
I'll do whatever you say
 
[Verse 2]
  Em7
I do what everybody said I would do
     Bm
It's over now, so kill the lights
  Em7
I go where everybody said I would go
        Bm
like a weeping child
             A
Were you the only one
              G
that made it feel right being me
 
[Chorus]
                Em7
Stay with me, stay
                     Bm
Don't leave me this way
                Em7
Stay with me, stay
                      Bm
I'll do whatever you say
 
[Bridge]
G           F#m          Em7
  And like today awaits tomorrow
Bm
  Like tomorrow needs today
G              F#m             Em7
  I need your simple words to follow
F#
  I'll do whatever you say
 
[Interlude]
| Em7 | Em7 | Bm | Bm | x2
 
[Chorus]
                Em7
Stay with me, stay
                     Bm
Don't leave me this way
                Em7
Stay with me, stay
                      Bm
I'll do whatever you say
                Em7
Stay with me, stay
            

READ  Lou Reed - Walk On The Wild Side Chords | The site that provides the most complete music chords

Thank you very much for your interest in our article. We hope this information is of great value to you.

You may also like

Leave a Comment