Home » Mitski – Goodbye My Danish Sweetheart Tabs | Ver. 1 | The site that provides the most complete music chords

Mitski – Goodbye My Danish Sweetheart Tabs | Ver. 1 | The site that provides the most complete music chords

Are you looking for a topic Mitski – Goodbye My Danish Sweetheart Tabs | Ver. 1
right? If so, then you can watch it right here.

Mitski – Goodbye My Danish Sweetheart Tabs | Ver. 1
| You can find many other song chords here

Australia.xemloibaihat.com | Mitski – Goodbye My Danish Sweetheart Tabs | Ver. 1


[Intro]
e|-------------------------------------------|
B|-------------------------------------------|
G|--------7-5-------7-5-------7-5-------7-5--|
D|----6-8-------6-8-------6-8-------6-8------|
A|--9---------9---------9---------9----------|
E|-------------------------------------------|
 
e|-------------------------------------------|
B|-------------------------------------------|
G|--------7-5-------7-5-------7-5-------7-5--|
D|----6-8-------6-8-------6-8-------6-8------|
A|--8---------8---------8---------8----------|
E|-------------------------------------------|
 
 
[Verse 1]
e|-------------------------------------------|
B|-------------------------------------------|
G|--------7-5-------7-5-------7-5-------7-5--|
D|----6-8-------6-8-------6-8-------6-8------|
A|--9---------9---------9---------9----------|
E|-------------------------------------------|
  "there's nobody better than you"
e|-------------------------------------------|
B|-------------------------------------------|
G|--------7-5-------7-5-------7-5-------7-5--|
D|----6-8-------6-8-------6-8-------6-8------|
A|--8---------8---------8---------8----------|
E|-------------------------------------------|
  "it took me a while 'till i knew"
e|-------------------------------------------|
B|-------------------------------------------|
G|--------7-5-------7-5-------7-5-------7-5--|
D|----6-8-------6-8-------6-8-------6-8------|
A|--9---------9---------9---------9----------|
E|-------------------------------------------|
  "But you knew from the start it was us, didn't you?"
e|-------------------------------------------|
B|-------------------------------------------|
G|--------8-6-------8-6-------8-6-------8-6--|
D|----6-8-------6-8-------6-8-------6-8------|
A|--8---------8---------8---------8----------|
E|-------------------------------------------|
 "It just took me a while till I knew"
 
 
[Pre-chorus]
e|-------------------------------------------|
B|-------------------------------------------|
G|--------6-5-------6-5-------6-5-------6-5--|
D|----6-8-------6-8-------6-8-------6-8------|
A|--9---------9---------9---------9----------|
E|-------------------------------------------|
  "Now I lay as I study a blank wall"
e|-------------------------------------------|
B|-------------------------------------------|
G|--------6-5-------6-5-------6-5-------6-5--|
D|----6-8-------6-8-------6-8-------6-8------|
A|--8---------8---------8---------8----------|
E|-------------------------------------------|
 "Would you spare me your voice if I call?"
e|-------------------------------------------|
B|-------------------------------------------|
G|--------7-5-------7-5-------7-5-------7-5--|
D|----6-8-------6-8-------6-8-------6-8------|
A|--9---------9---------9---------9----------|
E|-------------------------------------------|
  "Cause you waited and watered my heart till it grew"
e|------------------------------------------------|
B|------------------------------------------------|
G|--------8-6-------8-6-------8-6-------8-6-------|
D|----6-8-------6-8-------6-8-------6-8-------6---|
A|--8---------8---------8---------8---------8-8---|
E|------------------------------------------------|
  "you just grew a little smaller too.."
 
 
[Chorus]
e|-----------------------------------------------------------------------|
B|-----------------------------------------------------------------------|
G|--------8-6-------8-6-------8-6----------------------6-5-------6-5-----|
D|----6-8-------6-8-------6-8-----8-6--------------6-8-------6-8---------|
A|--8---------8---------8-------------8-6-8-6----8---------8-------------|
E|--------------------------------------------9--------------------------|
"So I don't blame you if you want to...  bury me in your memory,"
 
e|-----------------------------------------------------------------------|
B|-----------------------------------------------------------------------|
G|--------6-5-------6-5---------7-5-------7-5-------5-7------------------|
D|----6-8-------6-8-----8---6-8-------6-8-------4-6-----8----------------|
A|--8---------8-----------8---------8---------8-----------9-8-6-4-3------|
E|------------------------------------------------------------------6----|
 "I'm not the girl I ought to be, but maybe when you tell your friends"
e|---------------------------------------------------------|
B|---------------------------------------------------------|
G|--------6-5-------6-5-------6-5-------6-5---------7-5----|
D|----6-8-------6-8-------6-8-------6-8-----8---6-8--------|
A|--8---------8---------8---------8-----------8------------|
E|---------------------------------------------------------|
"you can tell them what you saw in me, and not how I turned out to be"
e|------------------------------------------------|
B|------------------------------------------------|
G|--------7-5-------7-5-------7-5-------7-5-------|
D|----6-8-------6-8-------6-8-------6-8-------6---|
A|--8---------8---------8---------8---------8-8---|
E|------------------------------------------------|
 
 
[verse 2] same as verse 1
e|-------------------------------------------|
B|-------------------------------------------|
G|--------7-5-------7-5-------7-5-------7-5--|
D|----6-8-------6-8-------6-8-------6-8------|
A|--9---------9---------9---------9----------|
E|-------------------------------------------|
"There's some kind of burning inside me..."
e|-------------------------------------------|
B|-------------------------------------------|
G|--------7-5-------7-5-------7-5-------7-5--|
D|----6-8-------6-8-------6-8-------6-8------|
A|--8---------8---------8---------8----------|
E|-------------------------------------------|
"It's kept me from falling apart"
e|-------------------------------------------|
B|-------------------------------------------|
G|--------7-5-------7-5-------7-5-------7-5--|
D|----6-8-------6-8-------6-8-------6-8------|
A|--9---------9---------9---------9----------|
E|-------------------------------------------|
"And I'm sure that you've seen what it's done to my heart"
e|-------------------------------------------|
B|-------------------------------------------|
G|--------8-6-------8-6-------8-6-------8-6--|
D|----6-8-------6-8-------6-8-------6-8------|
A|--8---------8---------8---------8----------|
E|-------------------------------------------|
"But it's kept me from falling apart"
 
 
[Pre-chorus]
e|-------------------------------------------|
B|-------------------------------------------|
G|--------6-5-------6-5-------6-5-------6-5--|
D|----6-8-------6-8-------6-8-------6-8------|
A|--9---------9---------9---------9----------|
E|-------------------------------------------|
  "Now I lay as I wonder about you"
e|-------------------------------------------|
B|-------------------------------------------|
G|--------6-5-------6-5-------6-5-------6-5--|
D|----6-8-------6-8-------6-8-------6-8------|
A|--8---------8---------8---------8----------|
E|-------------------------------------------|
 "Would you just tell me what i'm meant to do"
e|-------------------------------------------|
B|-------------------------------------------|
G|--------7-5-------7-5-------7-5-------7-5--|
D|----6-8-------6-8-------6-8-------6-8------|
A|--9---------9---------9---------9----------|
E|-------------------------------------------|
  "Cause I waited and watered my heart till it grew"
e|------------------------------------------------|
B|------------------------------------------------|
G|--------8-6-------8-6-------8-6-------8-6-------|
D|----6-8-------6-8-------6-8-------6-8-------6---|
A|--8---------8---------8---------8---------8-8---|
E|------------------------------------------------|
  "you can see how it's blossomed for you.."
 
 
[Chorus]
e|-----------------------------------------------------------------------|
B|-----------------------------------------------------------------------|
G|-------8-6-------8-6-------8-6-----------------------6-5-------6-5-----|
D|---6-8-------6-8-------6-8-----8-6---------------6-8-------6-8---------|
A|-8---------8---------8-------------8-6-8-6-----8---------8-------------|
E|-------------------------------------------9---------------------------|
  "and I don't blame you if you want to bury me in your memory..."
e|-----------------------------------------------------------------------|
B|-----------------------------------------------------------------------|
G|-------6-5-------6-5---------7-5-------7-5-------5-7-------------------|
D|---6-8-------6-8-----8---6-8-------6-8---------6-----8-----------------|
A|-8---------8-----------8---------8---------8-9---------9-8-6-----------|
E|-------------------------------------------------------------9-8-6-----|
 "I'm not the girl I ought to be, but maybe when you tell your friends"
e|-----------------------------------------------|
B|-----------------------------------------------|
G|-------6-5-------6-5-------6-5-------6-5-------|
D|---6-8-------6-8-------6-8-------6-8-----8-----|
A|-8---------8---------8---------9---------------|
E|-----------------------------------------------|
"you can tell them what you saw in me, and not the way i am"
e|--------------------------------------------------|
B|--------------------------------------------------|
G|-------9-7-------9-7-------9-7--------------------|
D|---7-9-------7-9-------7-9-----9-7----------------|
A|-9---------9---------9-------------9-7-9-7--------|
E|-------------------------------------------10-----|
  "And I don't mean to make your heart blue"
e|---------------------------------------------|
B|---------------------------------------------|
G|-------7-6-------7-6-------7-6-------7-6-----|
D|---7-9-------7-9-------7-9-------7-9---------|
A|-9---------9---------9---------9-------------|
E|---------------------------------------------|
"But could we be what we're meant to be? I'm just about to beg you please"
e|------------------------------------------------|
B|------------------------------------------------|
G|-------8-6-------8-6----------7-----------------|
D|---7-9-------7-9----------7-9---9---------------|
A|-9---------9------------9---------10-9-7--------|
E|---------------------10------------------10-----|
"And then, when you tell your friends, you can
e|----------------------------------------------------------------------------------|
B|----------------------------------------------------------------------------------|
G|-------7-6-------7-6-------7-6-------7-6----------9-7-------9-7-------9-7---------|
D|---7-9-------7-9-------7-9-------7-9-----9----7-9-------7-9-------7-9-------7-----|
A|-9---------9---------9---------9------------9---------9---------9---------9-------|
E|----------------------------------------------------------------------------------|
"Tell them what you saw in me, and not the way I used to be"
e|----------------------------------------------------------|
B|----------------------------------------------------------|
G|--------7-6--------7-6--------7-6-------------------------|
D|----7-9--------7-9--------7-9-----7-----------------------|
A|-10---------10---------10-----------9-(let that ring)-----|
E|----------------------------------------------------------|
"Cause there's nobody better than you."
            

See also  EXO – My Answer 기타 및 피아노 용 코드 및 탭 | Chords and Tabs for Piano and Guitar | The site that provides the most complete music chords
See also  Another One Bites the Dust Chords | The site that provides the most complete music chords

You can find more useful information here: See more

Mitski – Goodbye My Danish Sweetheart Tabs | Ver. 1
And searches related to this topic

#Mitski #Goodbye #Danish #Sweetheart #Tabs #Ver

Mitski – Goodbye My Danish Sweetheart Tabs | Ver. 1

>>See more useful information provided by us here: More info here.

Review the information related to the topic Mitski – Goodbye My Danish Sweetheart Tabs | Ver. 1
again

Australia.xemloibaihat.com | Mitski – Goodbye My Danish Sweetheart Tabs | Ver. 1


[Intro]
e|-------------------------------------------|
B|-------------------------------------------|
G|--------7-5-------7-5-------7-5-------7-5--|
D|----6-8-------6-8-------6-8-------6-8------|
A|--9---------9---------9---------9----------|
E|-------------------------------------------|
 
e|-------------------------------------------|
B|-------------------------------------------|
G|--------7-5-------7-5-------7-5-------7-5--|
D|----6-8-------6-8-------6-8-------6-8------|
A|--8---------8---------8---------8----------|
E|-------------------------------------------|
 
 
[Verse 1]
e|-------------------------------------------|
B|-------------------------------------------|
G|--------7-5-------7-5-------7-5-------7-5--|
D|----6-8-------6-8-------6-8-------6-8------|
A|--9---------9---------9---------9----------|
E|-------------------------------------------|
  "there's nobody better than you"
e|-------------------------------------------|
B|-------------------------------------------|
G|--------7-5-------7-5-------7-5-------7-5--|
D|----6-8-------6-8-------6-8-------6-8------|
A|--8---------8---------8---------8----------|
E|-------------------------------------------|
  "it took me a while 'till i knew"
e|-------------------------------------------|
B|-------------------------------------------|
G|--------7-5-------7-5-------7-5-------7-5--|
D|----6-8-------6-8-------6-8-------6-8------|
A|--9---------9---------9---------9----------|
E|-------------------------------------------|
  "But you knew from the start it was us, didn't you?"
e|-------------------------------------------|
B|-------------------------------------------|
G|--------8-6-------8-6-------8-6-------8-6--|
D|----6-8-------6-8-------6-8-------6-8------|
A|--8---------8---------8---------8----------|
E|-------------------------------------------|
 "It just took me a while till I knew"
 
 
[Pre-chorus]
e|-------------------------------------------|
B|-------------------------------------------|
G|--------6-5-------6-5-------6-5-------6-5--|
D|----6-8-------6-8-------6-8-------6-8------|
A|--9---------9---------9---------9----------|
E|-------------------------------------------|
  "Now I lay as I study a blank wall"
e|-------------------------------------------|
B|-------------------------------------------|
G|--------6-5-------6-5-------6-5-------6-5--|
D|----6-8-------6-8-------6-8-------6-8------|
A|--8---------8---------8---------8----------|
E|-------------------------------------------|
 "Would you spare me your voice if I call?"
e|-------------------------------------------|
B|-------------------------------------------|
G|--------7-5-------7-5-------7-5-------7-5--|
D|----6-8-------6-8-------6-8-------6-8------|
A|--9---------9---------9---------9----------|
E|-------------------------------------------|
  "Cause you waited and watered my heart till it grew"
e|------------------------------------------------|
B|------------------------------------------------|
G|--------8-6-------8-6-------8-6-------8-6-------|
D|----6-8-------6-8-------6-8-------6-8-------6---|
A|--8---------8---------8---------8---------8-8---|
E|------------------------------------------------|
  "you just grew a little smaller too.."
 
 
[Chorus]
e|-----------------------------------------------------------------------|
B|-----------------------------------------------------------------------|
G|--------8-6-------8-6-------8-6----------------------6-5-------6-5-----|
D|----6-8-------6-8-------6-8-----8-6--------------6-8-------6-8---------|
A|--8---------8---------8-------------8-6-8-6----8---------8-------------|
E|--------------------------------------------9--------------------------|
"So I don't blame you if you want to...  bury me in your memory,"
 
e|-----------------------------------------------------------------------|
B|-----------------------------------------------------------------------|
G|--------6-5-------6-5---------7-5-------7-5-------5-7------------------|
D|----6-8-------6-8-----8---6-8-------6-8-------4-6-----8----------------|
A|--8---------8-----------8---------8---------8-----------9-8-6-4-3------|
E|------------------------------------------------------------------6----|
 "I'm not the girl I ought to be, but maybe when you tell your friends"
e|---------------------------------------------------------|
B|---------------------------------------------------------|
G|--------6-5-------6-5-------6-5-------6-5---------7-5----|
D|----6-8-------6-8-------6-8-------6-8-----8---6-8--------|
A|--8---------8---------8---------8-----------8------------|
E|---------------------------------------------------------|
"you can tell them what you saw in me, and not how I turned out to be"
e|------------------------------------------------|
B|------------------------------------------------|
G|--------7-5-------7-5-------7-5-------7-5-------|
D|----6-8-------6-8-------6-8-------6-8-------6---|
A|--8---------8---------8---------8---------8-8---|
E|------------------------------------------------|
 
 
[verse 2] same as verse 1
e|-------------------------------------------|
B|-------------------------------------------|
G|--------7-5-------7-5-------7-5-------7-5--|
D|----6-8-------6-8-------6-8-------6-8------|
A|--9---------9---------9---------9----------|
E|-------------------------------------------|
"There's some kind of burning inside me..."
e|-------------------------------------------|
B|-------------------------------------------|
G|--------7-5-------7-5-------7-5-------7-5--|
D|----6-8-------6-8-------6-8-------6-8------|
A|--8---------8---------8---------8----------|
E|-------------------------------------------|
"It's kept me from falling apart"
e|-------------------------------------------|
B|-------------------------------------------|
G|--------7-5-------7-5-------7-5-------7-5--|
D|----6-8-------6-8-------6-8-------6-8------|
A|--9---------9---------9---------9----------|
E|-------------------------------------------|
"And I'm sure that you've seen what it's done to my heart"
e|-------------------------------------------|
B|-------------------------------------------|
G|--------8-6-------8-6-------8-6-------8-6--|
D|----6-8-------6-8-------6-8-------6-8------|
A|--8---------8---------8---------8----------|
E|-------------------------------------------|
"But it's kept me from falling apart"
 
 
[Pre-chorus]
e|-------------------------------------------|
B|-------------------------------------------|
G|--------6-5-------6-5-------6-5-------6-5--|
D|----6-8-------6-8-------6-8-------6-8------|
A|--9---------9---------9---------9----------|
E|-------------------------------------------|
  "Now I lay as I wonder about you"
e|-------------------------------------------|
B|-------------------------------------------|
G|--------6-5-------6-5-------6-5-------6-5--|
D|----6-8-------6-8-------6-8-------6-8------|
A|--8---------8---------8---------8----------|
E|-------------------------------------------|
 "Would you just tell me what i'm meant to do"
e|-------------------------------------------|
B|-------------------------------------------|
G|--------7-5-------7-5-------7-5-------7-5--|
D|----6-8-------6-8-------6-8-------6-8------|
A|--9---------9---------9---------9----------|
E|-------------------------------------------|
  "Cause I waited and watered my heart till it grew"
e|------------------------------------------------|
B|------------------------------------------------|
G|--------8-6-------8-6-------8-6-------8-6-------|
D|----6-8-------6-8-------6-8-------6-8-------6---|
A|--8---------8---------8---------8---------8-8---|
E|------------------------------------------------|
  "you can see how it's blossomed for you.."
 
 
[Chorus]
e|-----------------------------------------------------------------------|
B|-----------------------------------------------------------------------|
G|-------8-6-------8-6-------8-6-----------------------6-5-------6-5-----|
D|---6-8-------6-8-------6-8-----8-6---------------6-8-------6-8---------|
A|-8---------8---------8-------------8-6-8-6-----8---------8-------------|
E|-------------------------------------------9---------------------------|
  "and I don't blame you if you want to bury me in your memory..."
e|-----------------------------------------------------------------------|
B|-----------------------------------------------------------------------|
G|-------6-5-------6-5---------7-5-------7-5-------5-7-------------------|
D|---6-8-------6-8-----8---6-8-------6-8---------6-----8-----------------|
A|-8---------8-----------8---------8---------8-9---------9-8-6-----------|
E|-------------------------------------------------------------9-8-6-----|
 "I'm not the girl I ought to be, but maybe when you tell your friends"
e|-----------------------------------------------|
B|-----------------------------------------------|
G|-------6-5-------6-5-------6-5-------6-5-------|
D|---6-8-------6-8-------6-8-------6-8-----8-----|
A|-8---------8---------8---------9---------------|
E|-----------------------------------------------|
"you can tell them what you saw in me, and not the way i am"
e|--------------------------------------------------|
B|--------------------------------------------------|
G|-------9-7-------9-7-------9-7--------------------|
D|---7-9-------7-9-------7-9-----9-7----------------|
A|-9---------9---------9-------------9-7-9-7--------|
E|-------------------------------------------10-----|
  "And I don't mean to make your heart blue"
e|---------------------------------------------|
B|---------------------------------------------|
G|-------7-6-------7-6-------7-6-------7-6-----|
D|---7-9-------7-9-------7-9-------7-9---------|
A|-9---------9---------9---------9-------------|
E|---------------------------------------------|
"But could we be what we're meant to be? I'm just about to beg you please"
e|------------------------------------------------|
B|------------------------------------------------|
G|-------8-6-------8-6----------7-----------------|
D|---7-9-------7-9----------7-9---9---------------|
A|-9---------9------------9---------10-9-7--------|
E|---------------------10------------------10-----|
"And then, when you tell your friends, you can
e|----------------------------------------------------------------------------------|
B|----------------------------------------------------------------------------------|
G|-------7-6-------7-6-------7-6-------7-6----------9-7-------9-7-------9-7---------|
D|---7-9-------7-9-------7-9-------7-9-----9----7-9-------7-9-------7-9-------7-----|
A|-9---------9---------9---------9------------9---------9---------9---------9-------|
E|----------------------------------------------------------------------------------|
"Tell them what you saw in me, and not the way I used to be"
e|----------------------------------------------------------|
B|----------------------------------------------------------|
G|--------7-6--------7-6--------7-6-------------------------|
D|----7-9--------7-9--------7-9-----7-----------------------|
A|-10---------10---------10-----------9-(let that ring)-----|
E|----------------------------------------------------------|
"Cause there's nobody better than you."
            

See also  Tapio Rautavaara - Päivänsäde Ja Menninkäinen Tabs | Ver. 1 | The site that provides the most complete music chords

Thank you very much for your interest in our article. We hope this information is of great value to you.

Leave a Reply

Your email address will not be published.