Home » OLLY MURS – That Girl Guitar Tabs | The site that provides the most complete music chords

OLLY MURS – That Girl Guitar Tabs | The site that provides the most complete music chords

Are you looking for a topic OLLY MURS – That Girl Guitar Tabs right? If so, then you can watch it right here.

OLLY MURS – That Girl Guitar Tabs | You can find many other song chords here

 
Original Key: Bb Minor
Time Signature: 4/4
Tempo: 90
Suggested Strumming: DU,DU,DU,DU
c h o r d  z o n e . o r g

Legend
L - tied note
x - dead note
h - hammer on/pull off
b - bend
s - slide
~ - vibrato
g - ghost note
> - accentuated note
t - trill
M - palm mute
. - staccato
P - popping (bass)
S - slapping (bass)
+ - tapping
W - wide vibrato
< - fade in
w - whammy bar
= - tremolo picking
v - brush up
^ - brush down
V - pick stroke up
n - pick stroke down


E |----------------------------|
B |-----------------------1----|
G |--------------------3-------|
D |----------------------------|
A |----------------------------|
E |----------------------------|


----------------------------------------------------|
--2L----------2--1--2-----1-------------------------|
--------------------------------3-----1-----3-------|
-----------------------------------------------3L---|
----------------------------------------------------|
----------------------------------------------------|


----------------------------|
-----------------------1----|
--------------------3-------|
--3-------------------------|
----------------------------|
----------------------------|


----------------------------------------------------|
--2L----------2--1--2-----1-------------------------|
--------------------------------3-----1-----3--3L---|
----------------------------------------------------|
----------------------------------------------------|
----------------------------------------------------|


-----------------------------------------------1L---|
--------------------------------2-----2--4----------|
--3-------------------------------------------------|
----------------------------------------------------|
----------------------------------------------------|
----------------------------------------------------|


--1-----1-----1--4-----------------------1----------|
-----------------------4--------2--4----------------|
----------------------------------------------------|
----------------------------------------------------|
----------------------------------------------------|
----------------------------------------------------|


----------------------------------------------------|
--4--2-----------------------------------1-----2L---|
--------3L----3-----------------3--3----------------|
----------------------------------------------------|
----------------------------------------------------|
----------------------------------------------------|


----------------------------------------------------|
--2--------------2--------1-------------------------|
--------------------------------3-----1-----3--3L---|
----------------------------------------------------|
----------------------------------------------------|
----------------------------------------------------|


--------------1-------------|
-----------------4--4-------|
--3--------------------3----|
----------------------------|
----------------------------|
----------------------------|


--------1-------------------------------------------|
--------------------4-----4-----4--4--4-----4--4----|
--3-------------------------------------------------|
----------------------------------------------------|
----------------------------------------------------|
----------------------------------------------------|


--------1--1L-1-----------1-------------------------|
--4-----------------------------4-----4-------------|
--------------------------------------------3-------|
----------------------------------------------------|
----------------------------------------------------|
----------------------------------------------------|


--------1-------------------------------------------|
--------------------4-----4--4--4--4--4-----4-------|
--3-------------------------------------------------|
----------------------------------------------------|
----------------------------------------------------|
----------------------------------------------------|


----------------------------------------------------|
--4-----2--2L-2-------------------------------------|
--------------------------------3--3--3--3--3--3----|
----------------------------------------------------|
----------------------------------------------------|
----------------------------------------------------|


--------1--1--------------------4-----1-------------|
--------------------------------------------4-------|
--------------------3--3--3-------------------------|
----------------------------------------------------|
----------------------------------------------------|
----------------------------------------------------|

Australia.xemloibaihat.com
 

--------------------------------1-------------------|
--------4-----4--4--4--4--4-----------2-------------|
----------------------------------------------------|
----------------------------------------------------|
----------------------------------------------------|
----------------------------------------------------|


--------1--1--------------------4-----1-------------|
--------------------------------------------4-------|
--------------------3--3--3-------------------------|
----------------------------------------------------|
----------------------------------------------------|
----------------------------------------------------|


-----------------------------1--1-----------1--1L---|
--------4--4--4-----4--4--4-----------4-------------|
----------------------------------------------------|
----------------------------------------------------|
----------------------------------------------------|
----------------------------------------------------|


--1-------------------------|
-----2--2--2--2-------------|
----------------------------|
----------------------------|
----------------------------|
----------------------------|


--------------------------------1-------------------|
--------4-----4-----4--4--4--------2L-2-------------|
--------------------------------------------3-------|
----------------------------------------------------|
----------------------------------------------------|
----------------------------------------------------|


----------------------------|
-----2--2--2--2-------------|
----------------------------|
----------------------------|
----------------------------|
----------------------------|


----------------------------------------------------|
--------4-----4-----4--4--4-----2-----------1-------|
--------------------------------------3-------------|
----------------------------------------------------|
----------------------------------------------------|
----------------------------------------------------|


----------------------------------------------------|
--2L----------2--1--2-----1-------------------------|
--------------------------------3-----1-----3-------|
-----------------------------------------------3L---|
----------------------------------------------------|
----------------------------------------------------|


----------------------------|
-----------------------1----|
--------------------3-------|
--3-------------------------|
----------------------------|
----------------------------|


----------------------------------------------------|
--2L----------2--1--2-----1-------------------------|
--------------------------------3-----1-----3--3L---|
----------------------------------------------------|
----------------------------------------------------|
----------------------------------------------------|


-----------------------------------------------1L---|
--------------------------------2-----2--4----------|
--3-------------------------------------------------|
----------------------------------------------------|
----------------------------------------------------|
----------------------------------------------------|


--1-----1-----1--4-----------------------1----------|
-----------------------4--------2--4----------------|
----------------------------------------------------|
----------------------------------------------------|
----------------------------------------------------|
----------------------------------------------------|


----------------------------------------------------|
--4--2-----------------------------------1-----2L---|
--------3L----3-----------------3--3----------------|
----------------------------------------------------|
----------------------------------------------------|
----------------------------------------------------|


----------------------------------------------------|
--2--------------2--------1-------------------------|
--------------------------------3-----1-----3--3L---|
----------------------------------------------------|
----------------------------------------------------|
----------------------------------------------------|


--------------1-------------|
-----------------4--4-------|
--3--------------------3----|
----------------------------|
----------------------------|
----------------------------|


--------1-------------------------------------------|
--------------------4-----4-----4--4--4-----4--4----|
--3-------------------------------------------------|
----------------------------------------------------|
----------------------------------------------------|
----------------------------------------------------|


--------1--1L-1-----------1-------------------------|
--4-----------------------------4-----4-------------|
--------------------------------------------3-------|
----------------------------------------------------|
----------------------------------------------------|
----------------------------------------------------|


--------1-------------------------------------------|
--------------------4-----4--4--4--4--4-----4-------|
--3-------------------------------------------------|
----------------------------------------------------|
----------------------------------------------------|
----------------------------------------------------|


----------------------------------------------------|
--4--4--4--4--4-----4-----4-----2--2L-2-------------|
--------------------------------------------3--3----|
----------------------------------------------------|
----------------------------------------------------|
----------------------------------------------------|


--------1--1--------------------4-----1-------------|
--------------------------------------------4-------|
--------------------3--3--3-------------------------|
----------------------------------------------------|
----------------------------------------------------|
----------------------------------------------------|


--------------------------------1-------------------|
--------4-----4--4--4--4--4-----------2-------------|
----------------------------------------------------|
----------------------------------------------------|
----------------------------------------------------|
----------------------------------------------------|


--------1--1--------------------4-----1-------------|
--------------------------------------------4-------|
--------------------3--3--3-------------------------|
----------------------------------------------------|
----------------------------------------------------|
----------------------------------------------------|


-----------------------------1--1-----------1--1L---|
--------4--4--4-----4--4--4-----------4-------------|
----------------------------------------------------|
----------------------------------------------------|
----------------------------------------------------|
----------------------------------------------------|


--1-------------------------|
-----2--2--2--2-------------|
----------------------------|
----------------------------|
----------------------------|
----------------------------|


--------------------------------1-------------------|
--------4-----4-----4--4--4--------2L-2-------------|
--------------------------------------------3-------|
----------------------------------------------------|
----------------------------------------------------|
----------------------------------------------------|


----------------------------|
-----2--2--2--2-------------|
----------------------------|
----------------------------|
----------------------------|
----------------------------|

Australia.xemloibaihat.com
 

----------------------------------------------------|
--------4-----4-----4--4--4-----2L----2L------------|
----------------------------------------------------|
----------------------------------------------------|
----------------------------------------------------|
----------------------------------------------------|


----------------------------||
--2-------------------------||
----------------------------||
----------------------------||
----------------------------||
----------------------------||


You can find more useful information here: See more here

See also  Modern Baseball - Wedding Singer Chords | The site that provides the most complete music chords
See also  CHORDS: Bill Kirchen - Rockabilly Funeral Chords on Piano & Ukulele | | The site that provides the most complete music chords

OLLY MURS – That Girl Guitar Tabs And searches related to this topic

#OLLY #MURS #Girl #Guitar #Tabs

OLLY MURS – That Girl Guitar Tabs

>>See more useful information provided by us here: More info here.

Review the information related to the topic OLLY MURS – That Girl Guitar Tabs again

 
Original Key: Bb Minor
Time Signature: 4/4
Tempo: 90
Suggested Strumming: DU,DU,DU,DU
c h o r d  z o n e . o r g

Legend
L - tied note
x - dead note
h - hammer on/pull off
b - bend
s - slide
~ - vibrato
g - ghost note
> - accentuated note
t - trill
M - palm mute
. - staccato
P - popping (bass)
S - slapping (bass)
+ - tapping
W - wide vibrato
< - fade in
w - whammy bar
= - tremolo picking
v - brush up
^ - brush down
V - pick stroke up
n - pick stroke down


E |----------------------------|
B |-----------------------1----|
G |--------------------3-------|
D |----------------------------|
A |----------------------------|
E |----------------------------|


----------------------------------------------------|
--2L----------2--1--2-----1-------------------------|
--------------------------------3-----1-----3-------|
-----------------------------------------------3L---|
----------------------------------------------------|
----------------------------------------------------|


----------------------------|
-----------------------1----|
--------------------3-------|
--3-------------------------|
----------------------------|
----------------------------|


----------------------------------------------------|
--2L----------2--1--2-----1-------------------------|
--------------------------------3-----1-----3--3L---|
----------------------------------------------------|
----------------------------------------------------|
----------------------------------------------------|


-----------------------------------------------1L---|
--------------------------------2-----2--4----------|
--3-------------------------------------------------|
----------------------------------------------------|
----------------------------------------------------|
----------------------------------------------------|


--1-----1-----1--4-----------------------1----------|
-----------------------4--------2--4----------------|
----------------------------------------------------|
----------------------------------------------------|
----------------------------------------------------|
----------------------------------------------------|


----------------------------------------------------|
--4--2-----------------------------------1-----2L---|
--------3L----3-----------------3--3----------------|
----------------------------------------------------|
----------------------------------------------------|
----------------------------------------------------|


----------------------------------------------------|
--2--------------2--------1-------------------------|
--------------------------------3-----1-----3--3L---|
----------------------------------------------------|
----------------------------------------------------|
----------------------------------------------------|


--------------1-------------|
-----------------4--4-------|
--3--------------------3----|
----------------------------|
----------------------------|
----------------------------|


--------1-------------------------------------------|
--------------------4-----4-----4--4--4-----4--4----|
--3-------------------------------------------------|
----------------------------------------------------|
----------------------------------------------------|
----------------------------------------------------|


--------1--1L-1-----------1-------------------------|
--4-----------------------------4-----4-------------|
--------------------------------------------3-------|
----------------------------------------------------|
----------------------------------------------------|
----------------------------------------------------|


--------1-------------------------------------------|
--------------------4-----4--4--4--4--4-----4-------|
--3-------------------------------------------------|
----------------------------------------------------|
----------------------------------------------------|
----------------------------------------------------|


----------------------------------------------------|
--4-----2--2L-2-------------------------------------|
--------------------------------3--3--3--3--3--3----|
----------------------------------------------------|
----------------------------------------------------|
----------------------------------------------------|


--------1--1--------------------4-----1-------------|
--------------------------------------------4-------|
--------------------3--3--3-------------------------|
----------------------------------------------------|
----------------------------------------------------|
----------------------------------------------------|

Australia.xemloibaihat.com
 

--------------------------------1-------------------|
--------4-----4--4--4--4--4-----------2-------------|
----------------------------------------------------|
----------------------------------------------------|
----------------------------------------------------|
----------------------------------------------------|


--------1--1--------------------4-----1-------------|
--------------------------------------------4-------|
--------------------3--3--3-------------------------|
----------------------------------------------------|
----------------------------------------------------|
----------------------------------------------------|


-----------------------------1--1-----------1--1L---|
--------4--4--4-----4--4--4-----------4-------------|
----------------------------------------------------|
----------------------------------------------------|
----------------------------------------------------|
----------------------------------------------------|


--1-------------------------|
-----2--2--2--2-------------|
----------------------------|
----------------------------|
----------------------------|
----------------------------|


--------------------------------1-------------------|
--------4-----4-----4--4--4--------2L-2-------------|
--------------------------------------------3-------|
----------------------------------------------------|
----------------------------------------------------|
----------------------------------------------------|


----------------------------|
-----2--2--2--2-------------|
----------------------------|
----------------------------|
----------------------------|
----------------------------|


----------------------------------------------------|
--------4-----4-----4--4--4-----2-----------1-------|
--------------------------------------3-------------|
----------------------------------------------------|
----------------------------------------------------|
----------------------------------------------------|


----------------------------------------------------|
--2L----------2--1--2-----1-------------------------|
--------------------------------3-----1-----3-------|
-----------------------------------------------3L---|
----------------------------------------------------|
----------------------------------------------------|


----------------------------|
-----------------------1----|
--------------------3-------|
--3-------------------------|
----------------------------|
----------------------------|


----------------------------------------------------|
--2L----------2--1--2-----1-------------------------|
--------------------------------3-----1-----3--3L---|
----------------------------------------------------|
----------------------------------------------------|
----------------------------------------------------|


-----------------------------------------------1L---|
--------------------------------2-----2--4----------|
--3-------------------------------------------------|
----------------------------------------------------|
----------------------------------------------------|
----------------------------------------------------|


--1-----1-----1--4-----------------------1----------|
-----------------------4--------2--4----------------|
----------------------------------------------------|
----------------------------------------------------|
----------------------------------------------------|
----------------------------------------------------|


----------------------------------------------------|
--4--2-----------------------------------1-----2L---|
--------3L----3-----------------3--3----------------|
----------------------------------------------------|
----------------------------------------------------|
----------------------------------------------------|


----------------------------------------------------|
--2--------------2--------1-------------------------|
--------------------------------3-----1-----3--3L---|
----------------------------------------------------|
----------------------------------------------------|
----------------------------------------------------|


--------------1-------------|
-----------------4--4-------|
--3--------------------3----|
----------------------------|
----------------------------|
----------------------------|


--------1-------------------------------------------|
--------------------4-----4-----4--4--4-----4--4----|
--3-------------------------------------------------|
----------------------------------------------------|
----------------------------------------------------|
----------------------------------------------------|


--------1--1L-1-----------1-------------------------|
--4-----------------------------4-----4-------------|
--------------------------------------------3-------|
----------------------------------------------------|
----------------------------------------------------|
----------------------------------------------------|


--------1-------------------------------------------|
--------------------4-----4--4--4--4--4-----4-------|
--3-------------------------------------------------|
----------------------------------------------------|
----------------------------------------------------|
----------------------------------------------------|


----------------------------------------------------|
--4--4--4--4--4-----4-----4-----2--2L-2-------------|
--------------------------------------------3--3----|
----------------------------------------------------|
----------------------------------------------------|
----------------------------------------------------|


--------1--1--------------------4-----1-------------|
--------------------------------------------4-------|
--------------------3--3--3-------------------------|
----------------------------------------------------|
----------------------------------------------------|
----------------------------------------------------|


--------------------------------1-------------------|
--------4-----4--4--4--4--4-----------2-------------|
----------------------------------------------------|
----------------------------------------------------|
----------------------------------------------------|
----------------------------------------------------|


--------1--1--------------------4-----1-------------|
--------------------------------------------4-------|
--------------------3--3--3-------------------------|
----------------------------------------------------|
----------------------------------------------------|
----------------------------------------------------|


-----------------------------1--1-----------1--1L---|
--------4--4--4-----4--4--4-----------4-------------|
----------------------------------------------------|
----------------------------------------------------|
----------------------------------------------------|
----------------------------------------------------|


--1-------------------------|
-----2--2--2--2-------------|
----------------------------|
----------------------------|
----------------------------|
----------------------------|


--------------------------------1-------------------|
--------4-----4-----4--4--4--------2L-2-------------|
--------------------------------------------3-------|
----------------------------------------------------|
----------------------------------------------------|
----------------------------------------------------|


----------------------------|
-----2--2--2--2-------------|
----------------------------|
----------------------------|
----------------------------|
----------------------------|

Australia.xemloibaihat.com
 

----------------------------------------------------|
--------4-----4-----4--4--4-----2L----2L------------|
----------------------------------------------------|
----------------------------------------------------|
----------------------------------------------------|
----------------------------------------------------|


----------------------------||
--2-------------------------||
----------------------------||
----------------------------||
----------------------------||
----------------------------||


Thank you very much for your interest in our article. We hope this information is of great value to you.

See also  benny blanco - Eastside ft Halsey and Khalid Chords | The site that provides the most complete music chords

Leave a Reply

Your email address will not be published.