Home » SPENCER CRANDALL – My Person Guitar Tabs | The site that provides the most complete music chords

SPENCER CRANDALL – My Person Guitar Tabs | The site that provides the most complete music chords

Are you looking for a topic SPENCER CRANDALL – My Person Guitar Tabs right? If so, then you can watch it right here.

Table of Contents

SPENCER CRANDALL – My Person Guitar Tabs | You can find many other song chords here

 
Original Key: G Major
Time Signature: 4/4
Tempo: 85
Suggested Strumming: DU,DU,DU,DU
c h o r d  z o n e . o r g
 
E |-------|--------3--3--3--3--3--3--5-----0-------------------|
B |-------|----------------------------------------------------|
G |-------|----------------------------------------------------|
D |-------|----------------------------------------------------|
A |-------|----------------------------------------------------|
E |-------|----------------------------------------------------|


--------3--3--3-----3-----2-----3--3--------3-------|
----------------------------------------------------|
----------------------------------------------------|
----------------------------------------------------|
----------------------------------------------------|
----------------------------------------------------|


Australia.xemloibaihat.com
 
--------3--3--3--3--3--3--5-----0-------------------|
----------------------------------------------------|
----------------------------------------------------|
----------------------------------------------------|
----------------------------------------------------|
----------------------------------------------------|


--------3--3--3-----3-----5-----7--7--------7-------|
----------------------------------------------------|
----------------------------------------------------|
----------------------------------------------------|
----------------------------------------------------|
----------------------------------------------------|


--------10----10----10----10----10----10----10------|
-----------12----------12----------12----------12---|
----------------------------------------------------|
----------------------------------------------------|
----------------------------------------------------|
----------------------------------------------------|


--12-------------5--5L----5-------------------------|
-----------12---------------------------------------|
----------------------------------------------------|
----------------------------------------------------|
----------------------------------------------------|
----------------------------------------------------|


--------3--3--3--3--3--3--5-----0-------------------|
----------------------------------------------------|
----------------------------------------------------|
----------------------------------------------------|
----------------------------------------------------|
----------------------------------------------------|


--------3--3--3-----3-----2-----3-----5-----7-------|
----------------------------------------------------|
----------------------------------------------------|
----------------------------------------------------|
----------------------------------------------------|
----------------------------------------------------|


--7--------5--------7-----7--------5--------7-------|
----------------------------------------------------|
----------------------------------------------------|
----------------------------------------------------|
----------------------------------------------------|
----------------------------------------------------|

Australia.xemloibaihat.com
 

--7--------5--------7--7-----5--7--5--7--5--3-------|
----------------------------------------------------|
----------------------------------------------------|
----------------------------------------------------|
----------------------------------------------------|
----------------------------------------------------|


--7--------10-------3--------------------3-----7L---|
--------------------------3-------------------------|
----------------------------------------------------|
----------------------------------------------------|
----------------------------------------------------|
----------------------------------------------------|


--7--5--7--5--7-----3-----5-----------------3-------|
----------------------------------------------------|
----------------------------------------------------|
----------------------------------------------------|
----------------------------------------------------|
----------------------------------------------------|


--7--------3--------5-----7--------3--------7-------|
----------------------------------------------------|
----------------------------------------------------|
----------------------------------------------------|
----------------------------------------------------|
----------------------------------------------------|


--7--------5--------3-----10-------12---------------|
-----------------------------------------12-12-10L--|
----------------------------------------------------|
----------------------------------------------------|
----------------------------------------------------|
----------------------------------------------------|


-----------3--3--5--7-----------------------10------|
--10-------------------------------8--8--10---------|
----------------------------------------------------|
----------------------------------------------------|
----------------------------------------------------|
----------------------------------------------------|


-----7--7--7--7--5--3--7----|
----------------------------|
----------------------------|
----------------------------|
----------------------------|
----------------------------|


--7--------5L-5L----------------------5-------------||
----------------------------------------------------||
----------------------------------------------------||
----------------------------------------------------||
----------------------------------------------------||
----------------------------------------------------||


You can find more useful information here: Australia.xemloibaihat.com/chord

See also  Tate McRae - Teenage Mind Chords | The site that provides the most complete music chords

SPENCER CRANDALL – My Person Guitar Tabs And searches related to this topic

#SPENCER #CRANDALL #Person #Guitar #Tabs

SPENCER CRANDALL – My Person Guitar Tabs

>>See more useful information provided by us here: Australia.xemloibaihat.com.

Review the information related to the topic SPENCER CRANDALL – My Person Guitar Tabs again

 
Original Key: G Major
Time Signature: 4/4
Tempo: 85
Suggested Strumming: DU,DU,DU,DU
c h o r d  z o n e . o r g
 
E |-------|--------3--3--3--3--3--3--5-----0-------------------|
B |-------|----------------------------------------------------|
G |-------|----------------------------------------------------|
D |-------|----------------------------------------------------|
A |-------|----------------------------------------------------|
E |-------|----------------------------------------------------|


--------3--3--3-----3-----2-----3--3--------3-------|
----------------------------------------------------|
----------------------------------------------------|
----------------------------------------------------|
----------------------------------------------------|
----------------------------------------------------|


Australia.xemloibaihat.com
 
--------3--3--3--3--3--3--5-----0-------------------|
----------------------------------------------------|
----------------------------------------------------|
----------------------------------------------------|
----------------------------------------------------|
----------------------------------------------------|


--------3--3--3-----3-----5-----7--7--------7-------|
----------------------------------------------------|
----------------------------------------------------|
----------------------------------------------------|
----------------------------------------------------|
----------------------------------------------------|


--------10----10----10----10----10----10----10------|
-----------12----------12----------12----------12---|
----------------------------------------------------|
----------------------------------------------------|
----------------------------------------------------|
----------------------------------------------------|


--12-------------5--5L----5-------------------------|
-----------12---------------------------------------|
----------------------------------------------------|
----------------------------------------------------|
----------------------------------------------------|
----------------------------------------------------|


--------3--3--3--3--3--3--5-----0-------------------|
----------------------------------------------------|
----------------------------------------------------|
----------------------------------------------------|
----------------------------------------------------|
----------------------------------------------------|


--------3--3--3-----3-----2-----3-----5-----7-------|
----------------------------------------------------|
----------------------------------------------------|
----------------------------------------------------|
----------------------------------------------------|
----------------------------------------------------|


--7--------5--------7-----7--------5--------7-------|
----------------------------------------------------|
----------------------------------------------------|
----------------------------------------------------|
----------------------------------------------------|
----------------------------------------------------|

Australia.xemloibaihat.com
 

--7--------5--------7--7-----5--7--5--7--5--3-------|
----------------------------------------------------|
----------------------------------------------------|
----------------------------------------------------|
----------------------------------------------------|
----------------------------------------------------|


--7--------10-------3--------------------3-----7L---|
--------------------------3-------------------------|
----------------------------------------------------|
----------------------------------------------------|
----------------------------------------------------|
----------------------------------------------------|


--7--5--7--5--7-----3-----5-----------------3-------|
----------------------------------------------------|
----------------------------------------------------|
----------------------------------------------------|
----------------------------------------------------|
----------------------------------------------------|


--7--------3--------5-----7--------3--------7-------|
----------------------------------------------------|
----------------------------------------------------|
----------------------------------------------------|
----------------------------------------------------|
----------------------------------------------------|


--7--------5--------3-----10-------12---------------|
-----------------------------------------12-12-10L--|
----------------------------------------------------|
----------------------------------------------------|
----------------------------------------------------|
----------------------------------------------------|


-----------3--3--5--7-----------------------10------|
--10-------------------------------8--8--10---------|
----------------------------------------------------|
----------------------------------------------------|
----------------------------------------------------|
----------------------------------------------------|


-----7--7--7--7--5--3--7----|
----------------------------|
----------------------------|
----------------------------|
----------------------------|
----------------------------|


--7--------5L-5L----------------------5-------------||
----------------------------------------------------||
----------------------------------------------------||
----------------------------------------------------||
----------------------------------------------------||
----------------------------------------------------||


Thank you very much for your interest in our article. We hope this information is of great value to you.

See also  Train - Drops Of Jupiter | The site that provides the most complete music chords

Leave a Reply

Your email address will not be published.