Home ยป Swans – She Loves Us Bass | Ver. 1 | The site that provides the most complete music chords

Swans – She Loves Us Bass | Ver. 1 | The site that provides the most complete music chords

Are you looking for a topic Swans – She Loves Us Bass | Ver. 1
right? If so, then you can watch it right here.

Swans – She Loves Us Bass | Ver. 1
| You can find many other song chords here

Australia.xemloibaihat.com | Swans – She Loves Us Bass | Ver. 1


[Intro]
first riff
G|---------------------------------------------------------------------------|
D|---12-12-12-12-13----------------------------------------------------------|
A|---------------------------------------------------------------------------|
D|0------------------12-0----------------------------------------------------|
 
second riff happens from (1:18-1:45) and (2:29-3:11)
G|---------------------------------------------------------------------------|
D|---13-13-13-13-14----------------------------------------------------------|
A|---------------------------------------------------------------------------|
D|1-----------------13-1----------------------------------------------------|
 
just repeat and repeat th first riff
 
[transition]
 
just play the D strings
 
[second part]
 
G|---------------------------------------------------------------------------|
D|--12-12-13-----------------------------------------------------------------|
A|---------------------------------------------------------------------------|
D|---------------------------------------------------------------------------|
 
and then the full riff
G|------------------------------10---------12--------------------------------|
D|-12-12-13----12-12-14---12-12------12-12-----------------------------------|
A|---------------------------------------------------------------------------|
D|---------------------------------------------------------------------------|
 
sometimes you play  this
 
G|--------------|--------12----|---------------19-----|----------17----------------|
D|-------12-----|--------------|----------------------|----------------------------|
A|--------------|--------------|----------------------|----------------------------|
D|-12-12--------|--12-12-------|----------12-12-------|----12-12-------------------|
 
finally
G|--12-12-13---------------------|
D|-------------------------------|
A|-------------------------------|
D|-------------------------------|
 
[outro]
 
G|----19--19--19-----19--19--19-----19--19--19-----19------19----------------------|
D|----19--19--19-----19--19--19-----19--19--19-----19------19----------------------|
A|----17--17--17-----17--17--17-----17--17--17-----17------17----------------------|
D|0---------------0--------------0--------------0-------0------0-------------------|
 
just repeat and repeat
 
            

See also  Hank Williams - Just When I Needed You Chords | Ver. 1 | The site that provides the most complete music chords

You can find more useful information here: See more here

Swans – She Loves Us Bass | Ver. 1
And searches related to this topic

#Swans #Loves #Bass #Ver

See also  Silence is Easy - Easy Guitar (Chords and Lyrics) | silence chords | Website providing Australia's #1 song chords

Swans – She Loves Us Bass | Ver. 1

>>See more useful information provided by us here: https://australia.xemloibaihat.com.

Review the information related to the topic Swans – She Loves Us Bass | Ver. 1
again

Australia.xemloibaihat.com | Swans – She Loves Us Bass | Ver. 1


[Intro]
first riff
G|---------------------------------------------------------------------------|
D|---12-12-12-12-13----------------------------------------------------------|
A|---------------------------------------------------------------------------|
D|0------------------12-0----------------------------------------------------|
 
second riff happens from (1:18-1:45) and (2:29-3:11)
G|---------------------------------------------------------------------------|
D|---13-13-13-13-14----------------------------------------------------------|
A|---------------------------------------------------------------------------|
D|1-----------------13-1----------------------------------------------------|
 
just repeat and repeat th first riff
 
[transition]
 
just play the D strings
 
[second part]
 
G|---------------------------------------------------------------------------|
D|--12-12-13-----------------------------------------------------------------|
A|---------------------------------------------------------------------------|
D|---------------------------------------------------------------------------|
 
and then the full riff
G|------------------------------10---------12--------------------------------|
D|-12-12-13----12-12-14---12-12------12-12-----------------------------------|
A|---------------------------------------------------------------------------|
D|---------------------------------------------------------------------------|
 
sometimes you play  this
 
G|--------------|--------12----|---------------19-----|----------17----------------|
D|-------12-----|--------------|----------------------|----------------------------|
A|--------------|--------------|----------------------|----------------------------|
D|-12-12--------|--12-12-------|----------12-12-------|----12-12-------------------|
 
finally
G|--12-12-13---------------------|
D|-------------------------------|
A|-------------------------------|
D|-------------------------------|
 
[outro]
 
G|----19--19--19-----19--19--19-----19--19--19-----19------19----------------------|
D|----19--19--19-----19--19--19-----19--19--19-----19------19----------------------|
A|----17--17--17-----17--17--17-----17--17--17-----17------17----------------------|
D|0---------------0--------------0--------------0-------0------0-------------------|
 
just repeat and repeat
 
            

See also  Mal Blum - Nobody Waits Chords | Ver. 1 | The site that provides the most complete music chords

Thank you very much for your interest in our article. We hope this information is of great value to you.

Leave a Reply

Your email address will not be published.